  0
SECTION
  2
HEADER
  9
$ACADVER
  1
AC1014
  9
$ACADMAINTVER
 70
     9
  9
$DWGCODEPAGE
  3
ANSI_1252
  9
$INSBASE
 10
0.0
 20
0.0
 30
0.0
  9
$EXTMIN
 10
1.000000000000000E+20
 20
1.000000000000000E+20
 30
1.000000000000000E+20
  9
$EXTMAX
 10
-1.000000000000000E+20
 20
-1.000000000000000E+20
 30
-1.000000000000000E+20
  9
$LIMMIN
 10
0.0
 20
0.0
  9
$LIMMAX
 10
12.0
 20
9.0
  9
$ORTHOMODE
 70
     0
  9
$REGENMODE
 70
     1
  9
$FILLMODE
 70
     1
  9
$QTEXTMODE
 70
     0
  9
$MIRRTEXT
 70
     1
  9
$DRAGMODE
 70
     2
  9
$LTSCALE
 40
1.0
  9
$OSMODE
 70
    37
  9
$ATTMODE
 70
     1
  9
$TEXTSIZE
 40
0.2
  9
$TRACEWID
 40
0.05
  9
$TEXTSTYLE
  7
STANDARD
  9
$CLAYER
  8
0
  9
$CELTYPE
  6
BYLAYER
  9
$CECOLOR
 62
   256
  9
$CELTSCALE
 40
1.0
  9
$DELOBJ
 70
     1
  9
$DISPSILH
 70
     0
  9
$DIMSCALE
 40
1.0
  9
$DIMASZ
 40
0.18
  9
$DIMEXO
 40
0.0625
  9
$DIMDLI
 40
0.38
  9
$DIMRND
 40
0.0
  9
$DIMDLE
 40
0.0
  9
$DIMEXE
 40
0.18
  9
$DIMTP
 40
0.0
  9
$DIMTM
 40
0.0
  9
$DIMTXT
 40
0.18
  9
$DIMCEN
 40
0.09
  9
$DIMTSZ
 40
0.0
  9
$DIMTOL
 70
     0
  9
$DIMLIM
 70
     0
  9
$DIMTIH
 70
     1
  9
$DIMTOH
 70
     1
  9
$DIMSE1
 70
     0
  9
$DIMSE2
 70
     0
  9
$DIMTAD
 70
     0
  9
$DIMZIN
 70
     0
  9
$DIMBLK
  1

  9
$DIMASO
 70
     1
  9
$DIMSHO
 70
     1
  9
$DIMPOST
  1

  9
$DIMAPOST
  1

  9
$DIMALT
 70
     0
  9
$DIMALTD
 70
     2
  9
$DIMALTF
 40
25.4
  9
$DIMLFAC
 40
1.0
  9
$DIMTOFL
 70
     0
  9
$DIMTVP
 40
0.0
  9
$DIMTIX
 70
     0
  9
$DIMSOXD
 70
     0
  9
$DIMSAH
 70
     0
  9
$DIMBLK1
  1

  9
$DIMBLK2
  1

  9
$DIMSTYLE
  2
STANDARD
  9
$DIMCLRD
 70
     0
  9
$DIMCLRE
 70
     0
  9
$DIMCLRT
 70
     0
  9
$DIMTFAC
 40
1.0
  9
$DIMGAP
 40
0.09
  9
$DIMJUST
 70
     0
  9
$DIMSD1
 70
     0
  9
$DIMSD2
 70
     0
  9
$DIMTOLJ
 70
     1
  9
$DIMTZIN
 70
     0
  9
$DIMALTZ
 70
     0
  9
$DIMALTTZ
 70
     0
  9
$DIMFIT
 70
     3
  9
$DIMUPT
 70
     0
  9
$DIMUNIT
 70
     2
  9
$DIMDEC
 70
     4
  9
$DIMTDEC
 70
     4
  9
$DIMALTU
 70
     2
  9
$DIMALTTD
 70
     2
  9
$DIMTXSTY
  7
STANDARD
  9
$DIMAUNIT
 70
     0
  9
$LUNITS
 70
     2
  9
$LUPREC
 70
     4
  9
$SKETCHINC
 40
0.1
  9
$FILLETRAD
 40
0.0
  9
$AUNITS
 70
     0
  9
$AUPREC
 70
     0
  9
$MENU
  1
.
  9
$ELEVATION
 40
0.0
  9
$PELEVATION
 40
0.0
  9
$THICKNESS
 40
0.0
  9
$LIMCHECK
 70
     0
  9
$CHAMFERA
 40
0.0
  9
$CHAMFERB
 40
0.0
  9
$CHAMFERC
 40
0.0
  9
$CHAMFERD
 40
0.0
  9
$SKPOLY
 70
     0
  9
$TDCREATE
 40
2460160.673572975
  9
$TDUPDATE
 40
2460160.673573287
  9
$TDINDWG
 40
0.0000000116
  9
$TDUSRTIMER
 40
0.0000000116
  9
$USRTIMER
 70
     1
  9
$ANGBASE
 50
0.0
  9
$ANGDIR
 70
     0
  9
$PDMODE
 70
     0
  9
$PDSIZE
 40
0.0
  9
$PLINEWID
 40
0.0
  9
$COORDS
 70
     1
  9
$SPLFRAME
 70
     0
  9
$SPLINETYPE
 70
     6
  9
$SPLINESEGS
 70
     8
  9
$ATTDIA
 70
     0
  9
$ATTREQ
 70
     1
  9
$HANDLING
 70
     1
  9
$HANDSEED
  5
3B5
  9
$SURFTAB1
 70
     6
  9
$SURFTAB2
 70
     6
  9
$SURFTYPE
 70
     6
  9
$SURFU
 70
     6
  9
$SURFV
 70
     6
  9
$UCSNAME
  2

  9
$UCSORG
 10
0.0
 20
0.0
 30
0.0
  9
$UCSXDIR
 10
1.0
 20
0.0
 30
0.0
  9
$UCSYDIR
 10
0.0
 20
1.0
 30
0.0
  9
$PUCSNAME
  2

  9
$PUCSORG
 10
0.0
 20
0.0
 30
0.0
  9
$PUCSXDIR
 10
1.0
 20
0.0
 30
0.0
  9
$PUCSYDIR
 10
0.0
 20
1.0
 30
0.0
  9
$USERI1
 70
     0
  9
$USERI2
 70
     0
  9
$USERI3
 70
     0
  9
$USERI4
 70
     0
  9
$USERI5
 70
     0
  9
$USERR1
 40
0.0
  9
$USERR2
 40
0.0
  9
$USERR3
 40
0.0
  9
$USERR4
 40
0.0
  9
$USERR5
 40
0.0
  9
$WORLDVIEW
 70
     1
  9
$SHADEDGE
 70
     3
  9
$SHADEDIF
 70
    70
  9
$TILEMODE
 70
     1
  9
$MAXACTVP
 70
    64
  9
$PINSBASE
 10
0.0
 20
0.0
 30
0.0
  9
$PLIMCHECK
 70
     0
  9
$PEXTMIN
 10
1.000000000000000E+20
 20
1.000000000000000E+20
 30
1.000000000000000E+20
  9
$PEXTMAX
 10
-1.000000000000000E+20
 20
-1.000000000000000E+20
 30
-1.000000000000000E+20
  9
$PLIMMIN
 10
0.0
 20
0.0
  9
$PLIMMAX
 10
12.0
 20
9.0
  9
$UNITMODE
 70
     0
  9
$VISRETAIN
 70
     1
  9
$PLINEGEN
 70
     0
  9
$PSLTSCALE
 70
     1
  9
$TREEDEPTH
 70
  3020
  9
$PICKSTYLE
 70
     1
  9
$CMLSTYLE
  2
STANDARD
  9
$CMLJUST
 70
     0
  9
$CMLSCALE
 40
1.0
  9
$PROXYGRAPHICS
 70
     1
  9
$MEASUREMENT
 70
     0
  0
ENDSEC
  0
SECTION
  2
CLASSES
  0
CLASS
  1
ACDBDICTIONARYWDFLT
  2
AcDbDictionaryWithDefault
  3
ObjectDBX Classes
 90
        0
280
     0
281
     0
  0
CLASS
  1
VISUALSTYLE
  2
AcDbVisualStyle
  3
ObjectDBX Classes
 90
     4095
280
     0
281
     0
  0
CLASS
  1
MATERIAL
  2
AcDbMaterial
  3
ObjectDBX Classes
 90
     1153
280
     0
281
     0
  0
CLASS
  1
SCALE
  2
AcDbScale
  3
ObjectDBX Classes
 90
     1153
280
     0
281
     0
  0
CLASS
  1
TABLESTYLE
  2
AcDbTableStyle
  3
ObjectDBX Classes
 90
     4095
280
     0
281
     0
  0
CLASS
  1
MLEADERSTYLE
  2
AcDbMLeaderStyle
  3
ACDB_MLEADERSTYLE_CLASS
 90
     4095
280
     0
281
     0
  0
CLASS
  1
SUN
  2
AcDbSun
  3
SCENEOE
 90
     1153
280
     0
281
     0
  0
CLASS
  1
DICTIONARYVAR
  2
AcDbDictionaryVar
  3
ObjectDBX Classes
 90
        0
280
     0
281
     0
  0
CLASS
  1
XRECORD
  2
AcDbXrecord
  3
ObjectDBX Classes
 90
        0
280
     0
281
     0
  0
CLASS
  1
LWPOLYLINE
  2
AcDbPolyline
  3
ObjectDBX Classes
 90
        0
280
     0
281
     1
  0
CLASS
  1
HATCH
  2
AcDbHatch
  3
ObjectDBX Classes
 90
        0
280
     0
281
     1
  0
CLASS
  1
ACDBPLACEHOLDER
  2
AcDbPlaceHolder
  3
ObjectDBX Classes
 90
        0
280
     0
281
     0
  0
CLASS
  1
LAYOUT
  2
AcDbLayout
  3
ObjectDBX Classes
 90
        0
280
     0
281
     0
  0
ENDSEC
  0
SECTION
  2
TABLES
  0
TABLE
  2
VPORT
  5
8
102
{ACAD_XDICTIONARY
360
3AA
102
}
330
0
100
AcDbSymbolTable
 70
     1
  0
VPORT
  5
29
330
8
100
AcDbSymbolTableRecord
100
AcDbViewportTableRecord
  2
*ACTIVE
 70
     0
 10
0.0
 20
0.0
 11
1.0
 21
1.0
 12
0.0
 22
0.0
 13
0.0
 23
0.0
 14
0.5
 24
0.5
 15
0.5
 25
0.5
 16
0.0
 26
0.0
 36
1.0
 17
0.0
 27
0.0
 37
-1000.0
 40
415.594498847443
 41
1.854088050314465
 42
50.0
 43
659.0486762176471
 44
881.8898654363259
 50
0.0
 51
0.0
 71
     0
 72
   100
 73
     1
 74
     3
 75
     0
 76
     0
 77
     0
 78
     0
  0
ENDTAB
  0
TABLE
  2
LTYPE
  5
5
330
0
100
AcDbSymbolTable
 70
     1
  0
LTYPE
  5
14
330
5
100
AcDbSymbolTableRecord
100
AcDbLinetypeTableRecord
  2
BYBLOCK
 70
     0
  3

 72
    65
 73
     0
 40
0.0
  0
LTYPE
  5
15
330
5
100
AcDbSymbolTableRecord
100
AcDbLinetypeTableRecord
  2
BYLAYER
 70
     0
  3

 72
    65
 73
     0
 40
0.0
  0
LTYPE
  5
16
330
5
100
AcDbSymbolTableRecord
100
AcDbLinetypeTableRecord
  2
CONTINUOUS
 70
     0
  3
Solid line
 72
    65
 73
     0
 40
0.0
  0
ENDTAB
  0
TABLE
  2
LAYER
  5
2
330
0
100
AcDbSymbolTable
 70
     3
  0
LAYER
  5
10
330
2
100
AcDbSymbolTableRecord
100
AcDbLayerTableRecord
  2
0
 70
     0
 62
     7
  6
CONTINUOUS
  0
LAYER
  5
5E
330
2
100
AcDbSymbolTableRecord
100
AcDbLayerTableRecord
  2
PROFILEEDGES
 70
     0
 62
     7
  6
CONTINUOUS
  0
LAYER
  5
5F
330
2
100
AcDbSymbolTableRecord
100
AcDbLayerTableRecord
  2
SECTIONCUTEDGES
 70
     0
 62
     7
  6
CONTINUOUS
  0
ENDTAB
  0
TABLE
  2
STYLE
  5
3
330
0
100
AcDbSymbolTable
 70
     1
  0
STYLE
  5
11
330
3
100
AcDbSymbolTableRecord
100
AcDbTextStyleTableRecord
  2
STANDARD
 70
     0
 40
0.0
 41
1.0
 50
0.0
 71
     0
 42
0.2
  3
txt
  4

  0
ENDTAB
  0
TABLE
  2
VIEW
  5
6
330
0
100
AcDbSymbolTable
 70
     0
  0
ENDTAB
  0
TABLE
  2
UCS
  5
7
330
0
100
AcDbSymbolTable
 70
     0
  0
ENDTAB
  0
TABLE
  2
APPID
  5
9
330
0
100
AcDbSymbolTable
 70
     2
  0
APPID
  5
12
330
9
100
AcDbSymbolTableRecord
100
AcDbRegAppTableRecord
  2
ACAD
 70
     0
  0
APPID
  5
3B4
330
9
100
AcDbSymbolTableRecord
100
AcDbRegAppTableRecord
  2
ACAD_MLEADERVER
 70
     0
  0
ENDTAB
  0
TABLE
  2
DIMSTYLE
  5
A
330
0
100
AcDbSymbolTable
 70
     1
  0
DIMSTYLE
105
27
330
A
100
AcDbSymbolTableRecord
100
AcDbDimStyleTableRecord
  2
STANDARD
 70
     0
  3

  4

  5

  6

  7

 40
1.0
 41
0.18
 42
0.0625
 43
0.38
 44
0.18
 45
0.0
 46
0.0
 47
0.0
 48
0.0
140
0.18
141
0.09
142
0.0
143
25.4
144
1.0
145
0.0
146
1.0
147
0.09
 71
     0
 72
     0
 73
     1
 74
     1
 75
     0
 76
     0
 77
     0
 78
     0
170
     0
171
     2
172
     0
173
     0
174
     0
175
     0
176
     0
177
     0
178
     0
270
     2
271
     4
272
     4
273
     2
274
     2
340
11
275
     0
280
     0
281
     0
282
     0
283
     1
284
     0
285
     0
286
     0
287
     3
288
     0
  0
ENDTAB
  0
TABLE
  2
BLOCK_RECORD
  5
1
330
0
100
AcDbSymbolTable
 70
     0
  0
BLOCK_RECORD
  5
1F
330
1
100
AcDbSymbolTableRecord
100
AcDbBlockTableRecord
  2
*MODEL_SPACE
  0
BLOCK_RECORD
  5
1B
330
1
100
AcDbSymbolTableRecord
100
AcDbBlockTableRecord
  2
*PAPER_SPACE
  0
ENDTAB
  0
ENDSEC
  0
SECTION
  2
BLOCKS
  0
BLOCK
  5
20
330
1F
100
AcDbEntity
  8
0
100
AcDbBlockBegin
  2
*MODEL_SPACE
 70
     0
 10
0.0
 20
0.0
 30
0.0
  3
*MODEL_SPACE
  1

  0
ENDBLK
  5
21
330
1F
100
AcDbEntity
  8
0
100
AcDbBlockEnd
  0
BLOCK
  5
1C
330
1B
100
AcDbEntity
 67
     1
  8
0
100
AcDbBlockBegin
  2
*PAPER_SPACE
 70
     0
 10
0.0
 20
0.0
 30
0.0
  3
*PAPER_SPACE
  1

  0
ENDBLK
  5
1D
330
1B
100
AcDbEntity
 67
     1
  8
0
100
AcDbBlockEnd
  0
ENDSEC
  0
SECTION
  2
ENTITIES
  0
LINE
  5
60
330
1F
100
AcDbEntity
  8
0
100
AcDbLine
 10
18.50654246127184
 20
82.11766632062121
 30
0.0
 11
19.18754029812616
 21
87.43624989470811
 31
0.0
  0
LINE
  5
61
330
1F
100
AcDbEntity
  8
0
100
AcDbLine
 10
21.59537446476365
 20
103.9218868593841
 30
0.0
 11
21.61562102313868
 21
103.9195679319799
 31
0.0
  0
LINE
  5
62
330
1F
100
AcDbEntity
  8
0
100
AcDbLine
 10
20.60423371434942
 20
96.12367464091349
 30
0.0
 11
20.6087978241058
 21
96.12270023395226
 31
0.0
  0
LINE
  5
63
330
1F
100
AcDbEntity
  8
0
100
AcDbLine
 10
19.1824177985898
 20
87.43683885818814
 30
0.0
 11
19.18754029812616
 21
87.43624989470811
 31
0.0
  0
LINE
  5
64
330
1F
100
AcDbEntity
  8
0
100
AcDbLine
 10
20.61698776016153
 20
96.12234733035693
 30
0.0
 11
21.61562102313868
 21
103.9195679319799
 31
0.0
  0
LINE
  5
65
330
1F
100
AcDbEntity
  8
0
100
AcDbLine
 10
68.02126483804382
 20
27.38215824732155
 30
0.0
 11
70.10504227123673
 21
26.76565589684061
 31
0.0
  0
LINE
  5
66
330
1F
100
AcDbEntity
  8
0
100
AcDbLine
 10
66.85964501906163
 20
59.82496696901542
 30
0.0
 11
66.85067116279372
 21
59.83524497248584
 31
0.0
  0
LINE
  5
67
330
1F
100
AcDbEntity
  8
0
100
AcDbLine
 10
-39.45059229835147
 20
21.95195286446043
 30
0.0
 11
-39.44231166242355
 21
21.99408035855731
 31
0.0
  0
LINE
  5
68
330
1F
100
AcDbEntity
  8
0
100
AcDbLine
 10
-62.84104048198546
 20
26.3852339906859
 30
0.0
 11
-39.44231166242355
 21
21.99408035855731
 31
0.0
  0
LINE
  5
69
330
1F
100
AcDbEntity
  8
0
100
AcDbLine
 10
-62.84750727211195
 20
26.35152236604868
 30
0.0
 11
-62.84104048198546
 21
26.3852339906859
 31
0.0
  0
LINE
  5
6A
330
1F
100
AcDbEntity
  8
0
100
AcDbLine
 10
-80.5440833167803
 20
28.97094677684637
 30
0.0
 11
-73.55820374514855
 21
27.6600376499988
 31
0.0
  0
LINE
  5
6B
330
1F
100
AcDbEntity
  8
0
100
AcDbLine
 10
-80.55127178193858
 20
28.94269114721583
 30
0.0
 11
-80.5440833167803
 21
28.97094677684637
 31
0.0
  0
LINE
  5
6C
330
1F
100
AcDbEntity
  8
0
100
AcDbLine
 10
-73.56606000958493
 20
27.62929326876795
 30
0.0
 11
-73.55820374514855
 21
27.6600376499988
 31
0.0
  0
LINE
  5
6D
330
1F
100
AcDbEntity
  8
0
100
AcDbLine
 10
6.320232242846277
 20
62.42921907709408
 30
0.0
 11
9.390761633900361
 21
62.48353389218529
 31
0.0
  0
LINE
  5
6E
330
1F
100
AcDbEntity
  8
0
100
AcDbLine
 10
6.514610265022005
 20
62.88815644385332
 30
0.0
 11
9.679575194007674
 21
62.94414450626123
 31
0.0
  0
LINE
  5
6F
330
1F
100
AcDbEntity
  8
0
100
AcDbLine
 10
0.8956088150111503
 20
105.3126416886165
 30
0.0
 11
-3.957234091586796
 21
104.8925484246096
 31
0.0
  0
LINE
  5
70
330
1F
100
AcDbEntity
  8
0
100
AcDbLine
 10
12.45779750098172
 20
62.33164503623495
 30
0.0
 11
15.50741924505081
 21
61.97425209937862
 31
0.0
  0
LINE
  5
71
330
1F
100
AcDbEntity
  8
0
100
AcDbLine
 10
12.84093145693388
 20
62.78757654299991
 30
0.0
 11
15.98432385916181
 21
62.41917434096381
 31
0.0
  0
LINE
  5
72
330
1F
100
AcDbEntity
  8
0
100
AcDbLine
 10
-22.74988285717278
 20
100.0163922422875
 30
0.0
 11
-27.19329896654246
 21
98.0250327274197
 31
0.0
  0
LINE
  5
73
330
1F
100
AcDbEntity
  8
0
100
AcDbLine
 10
4.950243128416352
 20
88.1139396234045
 30
0.0
 11
9.707994420568326
 21
88.20594254586005
 31
0.0
  0
LINE
  5
74
330
1F
100
AcDbEntity
  8
0
100
AcDbLine
 10
0.2091383461020645
 20
87.70411381958701
 30
0.0
 11
4.950243128416352
 21
88.1139396234045
 31
0.0
  0
LINE
  5
75
330
1F
100
AcDbEntity
  8
0
100
AcDbLine
 10
-9.137716961211323
 20
85.94002009855595
 30
0.0
 11
-4.493920386966293
 21
86.97835738886387
 31
0.0
  0
LINE
  5
76
330
1F
100
AcDbEntity
  8
0
100
AcDbLine
 10
-13.70132069927805
 20
84.5938917668129
 30
0.0
 11
-9.137716961211323
 21
85.94002009855595
 31
0.0
  0
LINE
  5
77
330
1F
100
AcDbEntity
  8
0
100
AcDbLine
 10
-22.50625364427752
 20
81.00446470762991
 30
0.0
 11
-18.16418665836765
 21
82.94617734245925
 31
0.0
  0
LINE
  5
78
330
1F
100
AcDbEntity
  8
0
100
AcDbLine
 10
-19.80887255833024
 20
53.17968610555727
 30
0.0
 11
-17.2380218828642
 21
55.02214102942557
 31
0.0
  0
LINE
  5
79
330
1F
100
AcDbEntity
  8
0
100
AcDbLine
 10
-17.2380218828642
 20
55.02214102942557
 30
0.0
 11
-14.5488483393783
 21
56.68846995232767
 31
0.0
  0
LINE
  5
7A
330
1F
100
AcDbEntity
  8
0
100
AcDbLine
 10
-14.5488483393783
 20
56.68846995232767
 30
0.0
 11
-11.75347499609913
 21
58.17102550202947
 31
0.0
  0
LINE
  5
7B
330
1F
100
AcDbEntity
  8
0
100
AcDbLine
 10
-11.75347499609913
 20
58.17102550202947
 30
0.0
 11
-8.864525223785432
 21
59.46299681860964
 31
0.0
  0
LINE
  5
7C
330
1F
100
AcDbEntity
  8
0
100
AcDbLine
 10
-8.864525223785432
 20
59.46299681860964
 30
0.0
 11
-5.895064048971411
 21
60.5584432949864
 31
0.0
  0
LINE
  5
7D
330
1F
100
AcDbEntity
  8
0
100
AcDbLine
 10
-5.895064048971411
 20
60.5584432949864
 30
0.0
 11
-5.890538369577805
 21
60.5596927933727
 31
0.0
  0
LINE
  5
7E
330
1F
100
AcDbEntity
  8
0
100
AcDbLine
 10
-5.890538369577805
 20
60.5596927933727
 30
0.0
 11
-2.858537107993485
 21
61.45232410261069
 31
0.0
  0
LINE
  5
7F
330
1F
100
AcDbEntity
  8
0
100
AcDbLine
 10
-2.858537107993485
 20
61.45232410261069
 30
0.0
 11
0.2312924777861185
 21
62.14052331546848
 31
0.0
  0
LINE
  5
80
330
1F
100
AcDbEntity
  8
0
100
AcDbLine
 10
0.2312924777861185
 20
62.14052331546848
 30
0.0
 11
3.360408968740053
 21
62.61987047213362
 31
0.0
  0
LINE
  5
81
330
1F
100
AcDbEntity
  8
0
100
AcDbLine
 10
3.360408968740053
 20
62.61987047213362
 30
0.0
 11
6.514610265022005
 21
62.88815644385332
 31
0.0
  0
LINE
  5
82
330
1F
100
AcDbEntity
  8
0
100
AcDbLine
 10
9.679575194007674
 20
62.94414450626123
 30
0.0
 11
12.84093145693388
 21
62.78757654299991
 31
0.0
  0
LINE
  5
83
330
1F
100
AcDbEntity
  8
0
100
AcDbLine
 10
3.260146458134812
 20
62.16895076927407
 30
0.0
 11
6.320232242846277
 21
62.42921907709408
 31
0.0
  0
LINE
  5
84
330
1F
100
AcDbEntity
  8
0
100
AcDbLine
 10
-18.18494785694003
 20
101.7055157117896
 30
0.0
 11
-22.74988285717278
 21
100.0163922422875
 31
0.0
  0
LINE
  5
85
330
1F
100
AcDbEntity
  8
0
100
AcDbLine
 10
-19.21843511939628
 20
53.01059593347723
 30
0.0
 11
-16.7241131850939
 21
54.79808978374496
 31
0.0
  0
LINE
  5
86
330
1F
100
AcDbEntity
  8
0
100
AcDbLine
 10
15.49568848304154
 20
104.6205107300855
 30
0.0
 11
10.64287283058733
 21
105.176325056442
 31
0.0
  0
LINE
  5
87
330
1F
100
AcDbEntity
  8
0
100
AcDbLine
 10
10.64287283058733
 20
105.176325056442
 30
0.0
 11
5.769245622743842
 21
105.4073720193625
 31
0.0
  0
LINE
  5
88
330
1F
100
AcDbEntity
  8
0
100
AcDbLine
 10
5.769245622743842
 20
105.4073720193625
 30
0.0
 11
0.8956088150111503
 21
105.3126416886165
 31
0.0
  0
LINE
  5
89
330
1F
100
AcDbEntity
  8
0
100
AcDbLine
 10
-3.957234091586796
 20
104.8925484246096
 30
0.0
 11
-8.76857397650263
 21
104.1489294603291
 31
0.0
  0
LINE
  5
8A
330
1F
100
AcDbEntity
  8
0
100
AcDbLine
 10
-8.76857397650263
 20
104.1489294603291
 30
0.0
 11
-13.51789090439815
 21
103.085035737477
 31
0.0
  0
LINE
  5
8B
330
1F
100
AcDbEntity
  8
0
100
AcDbLine
 10
-13.51789090439815
 20
103.085035737477
 30
0.0
 11
-18.18494785694003
 21
101.7055157117896
 31
0.0
  0
LINE
  5
8C
330
1F
100
AcDbEntity
  8
0
100
AcDbLine
 10
-27.19329896654246
 20
98.0250327274197
 30
0.0
 11
-31.49635165383893
 21
95.74011269736681
 31
0.0
  0
LINE
  5
8D
330
1F
100
AcDbEntity
  8
0
100
AcDbLine
 10
-31.49635165383893
 20
95.74011269736681
 30
0.0
 11
-35.64083305887975
 21
93.17157311553646
 31
0.0
  0
LINE
  5
8E
330
1F
100
AcDbEntity
  8
0
100
AcDbLine
 10
-35.64083305887975
 20
93.17157311553646
 30
0.0
 11
-39.60925170460772
 21
90.33057113929198
 31
0.0
  0
LINE
  5
8F
330
1F
100
AcDbEntity
  8
0
100
AcDbLine
 10
-39.60925170460772
 20
90.33057113929198
 30
0.0
 11
-44.61106282651298
 21
86.74976060726007
 31
0.0
  0
LINE
  5
90
330
1F
100
AcDbEntity
  8
0
100
AcDbLine
 10
-8.60012768806407
 20
59.10638555185264
 30
0.0
 11
-5.719214764830395
 21
60.16911376333701
 31
0.0
  0
LINE
  5
91
330
1F
100
AcDbEntity
  8
0
100
AcDbLine
 10
-14.11503441913887
 20
56.41469314761036
 30
0.0
 11
-11.40295802407595
 21
57.85299251004926
 31
0.0
  0
LINE
  5
92
330
1F
100
AcDbEntity
  8
0
100
AcDbLine
 10
0.2243918912218896
 20
61.70392766410948
 30
0.0
 11
3.260146458134812
 21
62.16895076927407
 31
0.0
  0
LINE
  5
93
330
1F
100
AcDbEntity
  8
0
100
AcDbLine
 10
-11.40295802407595
 20
57.85299251004926
 30
0.0
 11
-8.60012768806407
 21
59.10638555185264
 31
0.0
  0
LINE
  5
94
330
1F
100
AcDbEntity
  8
0
100
AcDbLine
 10
-5.714824062943021
 20
60.17032593800175
 30
0.0
 11
-2.773259142275893
 21
61.03629098044568
 31
0.0
  0
LINE
  5
95
330
1F
100
AcDbEntity
  8
0
100
AcDbLine
 10
9.390761633900361
 20
62.48353389218529
 30
0.0
 11
12.45779750098172
 21
62.33164503623495
 31
0.0
  0
LINE
  5
96
330
1F
100
AcDbEntity
  8
0
100
AcDbLine
 10
-16.7241131850939
 20
54.79808978374496
 30
0.0
 11
-14.11503441913887
 21
56.41469314761036
 31
0.0
  0
LINE
  5
97
330
1F
100
AcDbEntity
  8
0
100
AcDbLine
 10
-5.719214764830395
 20
60.16911376333701
 30
0.0
 11
-5.714824062943021
 21
60.17032593800175
 31
0.0
  0
LINE
  5
98
330
1F
100
AcDbEntity
  8
0
100
AcDbLine
 10
-2.773259142275893
 20
61.03629098044568
 30
0.0
 11
0.2243918912218896
 21
61.70392766410948
 31
0.0
  0
LINE
  5
99
330
1F
100
AcDbEntity
  8
0
100
AcDbLine
 10
-34.61627910841584
 20
73.51108924768646
 30
0.0
 11
-32.68379554605168
 21
74.89337166662945
 31
0.0
  0
LINE
  5
9A
330
1F
100
AcDbEntity
  8
0
100
AcDbLine
 10
-32.68379554605168
 20
74.89337166662945
 30
0.0
 11
-28.72966000662516
 21
77.5267074275413
 31
0.0
  0
LINE
  5
9B
330
1F
100
AcDbEntity
  8
0
100
AcDbLine
 10
-28.72966000662516
 20
77.5267074275413
 30
0.0
 11
-15.93295292752695
 21
83.76996099092908
 31
0.0
  0
LINE
  5
9C
330
1F
100
AcDbEntity
  8
0
100
AcDbLine
 10
16.82429589509897
 20
87.70796580941091
 30
0.0
 11
12.08448250899538
 21
88.09281874759579
 31
0.0
  0
LINE
  5
9D
330
1F
100
AcDbEntity
  8
0
100
AcDbLine
 10
-2.142483469588004
 20
87.34122133785709
 30
0.0
 11
-15.93295292752695
 21
83.76996099092908
 31
0.0
  0
LINE
  5
9E
330
1F
100
AcDbEntity
  8
0
100
AcDbLine
 10
12.08448250899538
 20
88.09281874759579
 30
0.0
 11
-2.142483469588004
 21
87.34122133785709
 31
0.0
  0
LINE
  5
9F
330
1F
100
AcDbEntity
  8
0
100
AcDbLine
 10
-129.0914292857882
 20
-12.40474769104254
 30
0.0
 11
-124.530979324373
 21
-12.22428642867234
 31
0.0
  0
LINE
  5
A0
330
1F
100
AcDbEntity
  8
0
100
AcDbLine
 10
-133.0283614573926
 20
-14.23188441126044
 30
0.0
 11
-128.3289077169662
 21
-14.0459566810774
 31
0.0
  0
LINE
  5
A1
330
1F
100
AcDbEntity
  8
0
100
AcDbLine
 10
-142.5311529532681
 20
-14.74354194265986
 30
0.0
 11
-138.1118450110682
 21
-13.6672839320993
 31
0.0
  0
LINE
  5
A2
330
1F
100
AcDbEntity
  8
0
100
AcDbLine
 10
-142.5311529532681
 20
-14.74354194265986
 30
0.0
 11
-146.8768121860743
 21
-16.6415043027706
 31
0.0
  0
LINE
  5
A3
330
1F
100
AcDbEntity
  8
0
100
AcDbLine
 10
-146.8768121860743
 20
-16.6415043027706
 30
0.0
 11
-142.3232747641995
 21
-15.53265867756773
 31
0.0
  0
LINE
  5
A4
330
1F
100
AcDbEntity
  8
0
100
AcDbLine
 10
-119.9644175624191
 20
-12.34593494365194
 30
0.0
 11
-119.3959720928347
 21
-12.39878220028959
 31
0.0
  0
LINE
  5
A5
330
1F
100
AcDbEntity
  8
0
100
AcDbLine
 10
-123.6230253613575
 20
-14.17129015384826
 30
0.0
 11
-118.9549333067802
 21
-14.60517056071892
 31
0.0
  0
LINE
  5
A6
330
1F
100
AcDbEntity
  8
0
100
AcDbLine
 10
-121.6138268970198
 20
-38.0141156154072
 30
0.0
 11
-131.2088910299195
 21
-37.76445458558892
 31
0.0
  0
LINE
  5
A7
330
1F
100
AcDbEntity
  8
0
100
AcDbLine
 10
-124.8070513958014
 20
-37.71867024245689
 30
0.0
 11
-121.6138268970198
 21
-38.0141156154072
 31
0.0
  0
LINE
  5
A8
330
1F
100
AcDbEntity
  8
0
100
AcDbLine
 10
-128.0102429133143
 20
-37.63532210282276
 30
0.0
 11
-124.8070513958014
 21
-37.71867024245689
 31
0.0
  0
LINE
  5
A9
330
1F
100
AcDbEntity
  8
0
100
AcDbLine
 10
-131.2088910299195
 20
-37.76445458558892
 30
0.0
 11
-128.0102429133143
 21
-37.63532210282276
 31
0.0
  0
LINE
  5
AA
330
1F
100
AcDbEntity
  8
0
100
AcDbLine
 10
-140.6331989083876
 20
-39.41593184064265
 30
0.0
 11
-146.8768121860743
 21
-16.6415043027706
 31
0.0
  0
LINE
  5
AB
330
1F
100
AcDbEntity
  8
0
100
AcDbLine
 10
-140.6331989083876
 20
-39.41593184064265
 30
0.0
 11
-137.5346896087815
 21
-38.65681109871898
 31
0.0
  0
LINE
  5
AC
330
1F
100
AcDbEntity
  8
0
100
AcDbLine
 10
-134.388506442074
 20
-38.10547370929173
 30
0.0
 11
-131.2088910299195
 21
-37.76445458558892
 31
0.0
  0
LINE
  5
AD
330
1F
100
AcDbEntity
  8
0
100
AcDbLine
 10
-128.3289077169662
 20
-14.0459566810774
 30
0.0
 11
-123.6230253613575
 21
-14.17129015384826
 31
0.0
  0
LINE
  5
AE
330
1F
100
AcDbEntity
  8
0
100
AcDbLine
 10
-142.3232747641995
 20
-15.53265867756773
 30
0.0
 11
-137.7001764374132
 21
-14.72821518765794
 31
0.0
  0
LINE
  5
AF
330
1F
100
AcDbEntity
  8
0
100
AcDbLine
 10
-124.530979324373
 20
-12.22428642867234
 30
0.0
 11
-119.9644175624191
 21
-12.34593494365194
 31
0.0
  0
LINE
  5
B0
330
1F
100
AcDbEntity
  8
0
100
AcDbLine
 10
-138.1118450110682
 20
-13.6672839320993
 30
0.0
 11
-133.6251983989007
 21
-12.88648689416208
 31
0.0
  0
LINE
  5
B1
330
1F
100
AcDbEntity
  8
0
100
AcDbLine
 10
-121.6138268970198
 20
-38.0141156154072
 30
0.0
 11
-118.9401713627837
 21
-14.67902025929726
 31
0.0
  0
LINE
  5
B2
330
1F
100
AcDbEntity
  8
0
100
AcDbLine
 10
90.40078409197072
 20
43.66751463120277
 30
0.0
 11
87.45838657134814
 21
44.7913274593429
 31
0.0
  0
LINE
  5
B3
330
1F
100
AcDbEntity
  8
0
100
AcDbLine
 10
81.9518832509321
 20
2.89372843345866
 30
0.0
 11
86.54765367229365
 21
1.497170815394183
 31
0.0
  0
LINE
  5
B4
330
1F
100
AcDbEntity
  8
0
100
AcDbLine
 10
81.72131585595406
 20
47.62004989820761
 30
0.0
 11
81.834159141526
 21
47.62020628022259
 31
0.0
  0
LINE
  5
B5
330
1F
100
AcDbEntity
  8
0
100
AcDbLine
 10
84.59862905817671
 20
46.11080298556087
 30
0.0
 11
81.834159141526
 21
47.62020628022259
 31
0.0
  0
LINE
  5
B6
330
1F
100
AcDbEntity
  8
0
100
AcDbLine
 10
67.28889485952159
 20
18.50875662462142
 30
0.0
 11
63.49238609259091
 21
11.7608992179544
 31
0.0
  0
LINE
  5
B7
330
1F
100
AcDbEntity
  8
0
100
AcDbLine
 10
67.46896072590263
 20
26.39969003967874
 30
0.0
 11
69.53559054088005
 21
25.75316195267069
 31
0.0
  0
LINE
  5
B8
330
1F
100
AcDbEntity
  8
0
100
AcDbLine
 10
60.26201247218967
 20
13.57958354807663
 30
0.0
 11
67.46896072590263
 21
26.39969003967874
 31
0.0
  0
LINE
  5
B9
330
1F
100
AcDbEntity
  8
0
100
AcDbLine
 10
60.26201247218967
 20
13.57958354807663
 30
0.0
 11
63.49238609259091
 21
11.7608992179544
 31
0.0
  0
LINE
  5
BA
330
1F
100
AcDbEntity
  8
0
100
AcDbLine
 10
105.5597212257395
 20
-0.9616841402646649
 30
0.0
 11
110.3734096694347
 21
-0.7823862803035947
 31
0.0
  0
LINE
  5
BB
330
1F
100
AcDbEntity
  8
0
100
AcDbLine
 10
82.36569873386422
 20
19.88288657440009
 30
0.0
 11
77.9614579555101
 21
21.55207167914236
 31
0.0
  0
LINE
  5
BC
330
1F
100
AcDbEntity
  8
0
100
AcDbLine
 10
86.87221647668376
 20
18.5110776146856
 30
0.0
 11
82.36569873386422
 21
19.88288657440009
 31
0.0
  0
LINE
  5
BD
330
1F
100
AcDbEntity
  8
0
100
AcDbLine
 10
96.11382830153978
 20
16.68143700068667
 30
0.0
 11
91.46153081819402
 21
17.44242741492657
 31
0.0
  0
LINE
  5
BE
330
1F
100
AcDbEntity
  8
0
100
AcDbLine
 10
100.8090422899527
 20
16.23130960859094
 30
0.0
 11
96.11382830153978
 21
16.68143700068667
 31
0.0
  0
LINE
  5
BF
330
1F
100
AcDbEntity
  8
0
100
AcDbLine
 10
110.247171481304
 20
16.26990363340117
 30
0.0
 11
105.5269335780221
 21
16.09393919117889
 31
0.0
  0
LINE
  5
C0
330
1F
100
AcDbEntity
  8
0
100
AcDbLine
 10
118.3861851217319
 20
42.86935864549435
 30
0.0
 11
124.2189942395712
 21
18.66383354519594
 31
0.0
  0
LINE
  5
C1
330
1F
100
AcDbEntity
  8
0
100
AcDbLine
 10
118.3861851217319
 20
42.86935864549435
 30
0.0
 11
115.3081153572099
 21
42.11983864776963
 31
0.0
  0
LINE
  5
C2
330
1F
100
AcDbEntity
  8
0
100
AcDbLine
 10
115.3081153572099
 20
42.11983864776963
 30
0.0
 11
112.1899525421503
 21
41.57757730545072
 31
0.0
  0
LINE
  5
C3
330
1F
100
AcDbEntity
  8
0
100
AcDbLine
 10
112.1899525421503
 20
41.57757730545072
 30
0.0
 11
109.0454349381386
 21
41.24492587322989
 31
0.0
  0
LINE
  5
C4
330
1F
100
AcDbEntity
  8
0
100
AcDbLine
 10
109.0454349381386
 20
41.24492587322989
 30
0.0
 11
105.8884111092629
 21
41.12332631551449
 31
0.0
  0
LINE
  5
C5
330
1F
100
AcDbEntity
  8
0
100
AcDbLine
 10
105.8884111092629
 20
41.12332631551449
 30
0.0
 11
102.7327817606784
 21
41.21330565797425
 31
0.0
  0
LINE
  5
C6
330
1F
100
AcDbEntity
  8
0
100
AcDbLine
 10
102.7327817606784
 20
41.21330565797425
 30
0.0
 11
102.7281325050093
 21
41.21383104478281
 31
0.0
  0
LINE
  5
C7
330
1F
100
AcDbEntity
  8
0
100
AcDbLine
 10
99.59244140965828
 20
41.51447392446768
 30
0.0
 11
96.48122008341907
 21
42.02552566355543
 31
0.0
  0
LINE
  5
C8
330
1F
100
AcDbEntity
  8
0
100
AcDbLine
 10
96.48122008341907
 20
42.02552566355543
 30
0.0
 11
93.41282523792015
 21
42.74424506148852
 31
0.0
  0
LINE
  5
C9
330
1F
100
AcDbEntity
  8
0
100
AcDbLine
 10
93.41282523792015
 20
42.74424506148852
 30
0.0
 11
90.40078409197072
 21
43.66751463120277
 31
0.0
  0
LINE
  5
CA
330
1F
100
AcDbEntity
  8
0
100
AcDbLine
 10
87.45838657134814
 20
44.7913274593429
 30
0.0
 11
84.59862905817671
 21
46.11080298556087
 31
0.0
  0
LINE
  5
CB
330
1F
100
AcDbEntity
  8
0
100
AcDbLine
 10
100.7508358773499
 20
-0.8221969730582043
 30
0.0
 11
105.5597212257395
 21
-0.9616841402646649
 31
0.0
  0
LINE
  5
CC
330
1F
100
AcDbEntity
  8
0
100
AcDbLine
 10
114.8613202290466
 20
43.00743511353022
 30
0.0
 11
111.8751696125592
 21
42.28021884549774
 31
0.0
  0
LINE
  5
CD
330
1F
100
AcDbEntity
  8
0
100
AcDbLine
 10
114.8613202290466
 20
43.00743511353022
 30
0.0
 11
118.3861851217319
 21
42.86935864549435
 31
0.0
  0
LINE
  5
CE
330
1F
100
AcDbEntity
  8
0
100
AcDbLine
 10
128.795167575936
 20
10.54144105608222
 30
0.0
 11
130.5920009642325
 21
3.075912041667149
 31
0.0
  0
LINE
  5
CF
330
1F
100
AcDbEntity
  8
0
100
AcDbLine
 10
68.84194613046827
 20
8.876360007556572
 30
0.0
 11
63.49238609259091
 21
11.7608992179544
 31
0.0
  0
LINE
  5
D0
330
1F
100
AcDbEntity
  8
0
100
AcDbLine
 10
68.84194613046827
 20
8.876360007556572
 30
0.0
 11
73.08092113294383
 21
6.59065996494345
 31
0.0
  0
LINE
  5
D1
330
1F
100
AcDbEntity
  8
0
100
AcDbLine
 10
73.08092113294383
 20
6.59065996494345
 30
0.0
 11
77.45686113464592
 21
4.593806084489513
 31
0.0
  0
LINE
  5
D2
330
1F
100
AcDbEntity
  8
0
100
AcDbLine
 10
77.45686113464592
 20
4.593806084489513
 30
0.0
 11
81.9518832509321
 21
2.89372843345866
 31
0.0
  0
LINE
  5
D3
330
1F
100
AcDbEntity
  8
0
100
AcDbLine
 10
86.54765367229365
 20
1.497170815394183
 30
0.0
 11
91.2254580609615
 21
0.4096672845933365
 31
0.0
  0
LINE
  5
D4
330
1F
100
AcDbEntity
  8
0
100
AcDbLine
 10
91.2254580609615
 20
0.4096672845933365
 30
0.0
 11
95.96627260940478
 21
-0.3644763699412853
 31
0.0
  0
LINE
  5
D5
330
1F
100
AcDbEntity
  8
0
100
AcDbLine
 10
95.96627260940478
 20
-0.3644763699412853
 30
0.0
 11
100.7508358773499
 21
-0.8221969730582043
 31
0.0
  0
LINE
  5
D6
330
1F
100
AcDbEntity
  8
0
100
AcDbLine
 10
110.3734096694347
 20
-0.7823862803035947
 30
0.0
 11
115.172362972732
 21
-0.2850124222447484
 31
0.0
  0
LINE
  5
D7
330
1F
100
AcDbEntity
  8
0
100
AcDbLine
 10
115.172362972732
 20
-0.2850124222447484
 30
0.0
 11
119.9370968128716
 21
0.5284701332568214
 31
0.0
  0
LINE
  5
D8
330
1F
100
AcDbEntity
  8
0
100
AcDbLine
 10
119.9370968128716
 20
0.5284701332568214
 30
0.0
 11
124.6482531325372
 21
1.654843198213475
 31
0.0
  0
LINE
  5
D9
330
1F
100
AcDbEntity
  8
0
100
AcDbLine
 10
124.6482531325372
 20
1.654843198213475
 30
0.0
 11
130.5920009642325
 21
3.075912041667149
 31
0.0
  0
LINE
  5
DA
330
1F
100
AcDbEntity
  8
0
100
AcDbLine
 10
102.7362400366969
 20
41.31335460851117
 30
0.0
 11
101.2472895260567
 21
41.35581087762205
 31
0.0
  0
LINE
  5
DB
330
1F
100
AcDbEntity
  8
0
100
AcDbLine
 10
108.8500318626943
 20
41.7540915613242
 30
0.0
 11
105.7992413493311
 21
41.43133668781473
 31
0.0
  0
LINE
  5
DC
330
1F
100
AcDbEntity
  8
0
100
AcDbLine
 10
105.7992413493311
 20
41.43133668781473
 30
0.0
 11
102.7362400366969
 21
41.31335460851117
 31
0.0
  0
LINE
  5
DD
330
1F
100
AcDbEntity
  8
0
100
AcDbLine
 10
111.8751696125592
 20
42.28021884549774
 30
0.0
 11
108.8500318626943
 21
41.7540915613242
 31
0.0
  0
LINE
  5
DE
330
1F
100
AcDbEntity
  8
0
100
AcDbLine
 10
67.46896072590263
 20
26.39969003967874
 30
0.0
 11
68.02126483804382
 21
27.38215824732155
 31
0.0
  0
LINE
  5
DF
330
1F
100
AcDbEntity
  8
0
100
AcDbLine
 10
124.2189942395712
 20
18.66383354519594
 30
0.0
 11
121.916055642964
 21
18.11066367836791
 31
0.0
  0
LINE
  5
E0
330
1F
100
AcDbEntity
  8
0
100
AcDbLine
 10
71.60732974014958
 20
24.63223876076387
 30
0.0
 11
69.53559054088005
 21
25.75316195267069
 31
0.0
  0
LINE
  5
E1
330
1F
100
AcDbEntity
  8
0
100
AcDbLine
 10
121.916055642964
 20
18.11066367836791
 30
0.0
 11
117.2813034395707
 21
17.15799421861885
 31
0.0
  0
LINE
  5
E2
330
1F
100
AcDbEntity
  8
0
100
AcDbLine
 10
117.2813034395707
 20
17.15799421861885
 30
0.0
 11
103.1680056242738
 21
16.16262388479835
 31
0.0
  0
LINE
  5
E3
330
1F
100
AcDbEntity
  8
0
100
AcDbLine
 10
71.60732974014958
 20
24.63223876076387
 30
0.0
 11
75.82023911030257
 21
22.53172591373774
 31
0.0
  0
LINE
  5
E4
330
1F
100
AcDbEntity
  8
0
100
AcDbLine
 10
89.16700748902639
 20
17.97672134896543
 30
0.0
 11
103.1680056242738
 21
16.16262388479835
 31
0.0
  0
LINE
  5
E5
330
1F
100
AcDbEntity
  8
0
100
AcDbLine
 10
75.82023911030257
 20
22.53172591373774
 30
0.0
 11
89.16700748902639
 21
17.97672134896543
 31
0.0
  0
LINE
  5
E6
330
1F
100
AcDbEntity
  8
0
100
AcDbLine
 10
-102.9612772064737
 20
-14.39741896123091
 30
0.0
 11
-106.1303178157613
 21
-14.87935604373266
 31
0.0
  0
LINE
  5
E7
330
1F
100
AcDbEntity
  8
0
100
AcDbLine
 10
-112.2532363196878
 20
-38.76504404259475
 30
0.0
 11
-116.9439176490091
 21
-38.543896807642
 31
0.0
  0
LINE
  5
E8
330
1F
100
AcDbEntity
  8
0
100
AcDbLine
 10
-88.00741847478149
 20
-8.91061739056889
 30
0.0
 11
-90.83484648193706
 21
-10.40385036455439
 31
0.0
  0
LINE
  5
E9
330
1F
100
AcDbEntity
  8
0
100
AcDbLine
 10
-116.9439176490091
 20
-38.543896807642
 30
0.0
 11
-121.6138268970198
 21
-38.0141156154072
 31
0.0
  0
LINE
  5
EA
330
1F
100
AcDbEntity
  8
0
100
AcDbLine
 10
-72.40140213381049
 20
-27.14040039312013
 30
0.0
 11
-76.38599414625885
 21
-29.58397094455229
 31
0.0
  0
LINE
  5
EB
330
1F
100
AcDbEntity
  8
0
100
AcDbLine
 10
-102.8904262879722
 20
-38.27901684637159
 30
0.0
 11
-107.5619997651568
 21
-38.67662670381577
 31
0.0
  0
LINE
  5
EC
330
1F
100
AcDbEntity
  8
0
100
AcDbLine
 10
-99.83358393734963
 20
-13.70546123962875
 30
0.0
 11
-102.9612772064737
 21
-14.39741896123091
 31
0.0
  0
LINE
  5
ED
330
1F
100
AcDbEntity
  8
0
100
AcDbLine
 10
-90.83484648193706
 20
-10.40385036455439
 30
0.0
 11
-93.75699663613783
 21
-11.70434729975223
 31
0.0
  0
LINE
  5
EE
330
1F
100
AcDbEntity
  8
0
100
AcDbLine
 10
-85.28719758904238
 20
-7.231123068090478
 30
0.0
 11
-88.00741847478149
 21
-8.91061739056889
 31
0.0
  0
LINE
  5
EF
330
1F
100
AcDbEntity
  8
0
100
AcDbLine
 10
-98.25865469509878
 20
-37.57388786370249
 30
0.0
 11
-102.8904262879722
 21
-38.27901684637159
 31
0.0
  0
LINE
  5
F0
330
1F
100
AcDbEntity
  8
0
100
AcDbLine
 10
-82.68621647710178
 20
-5.372657408942787
 30
0.0
 11
-68.58866230905961
 21
-24.43637144458991
 31
0.0
  0
LINE
  5
F1
330
1F
100
AcDbEntity
  8
0
100
AcDbLine
 10
-82.68621647710178
 20
-5.372657408942787
 30
0.0
 11
-85.28719758904238
 21
-7.231123068090478
 31
0.0
  0
LINE
  5
F2
330
1F
100
AcDbEntity
  8
0
100
AcDbLine
 10
-93.75699663613783
 20
-11.70434729975223
 30
0.0
 11
-96.76098508944122
 21
-12.80647445397124
 31
0.0
  0
LINE
  5
F3
330
1F
100
AcDbEntity
  8
0
100
AcDbLine
 10
-96.76098508944122
 20
-12.80647445397124
 30
0.0
 11
-99.83358393734963
 21
-13.70546123962875
 31
0.0
  0
LINE
  5
F4
330
1F
100
AcDbEntity
  8
0
100
AcDbLine
 10
-106.1303178157613
 20
-14.87935604373266
 30
0.0
 11
-109.3267853150975
 21
-15.14918972001082
 31
0.0
  0
LINE
  5
F5
330
1F
100
AcDbEntity
  8
0
100
AcDbLine
 10
-109.3267853150975
 20
-15.14918972001082
 30
0.0
 11
-112.5366442058424
 21
-15.20575415357354
 31
0.0
  0
LINE
  5
F6
330
1F
100
AcDbEntity
  8
0
100
AcDbLine
 10
-112.5366442058424
 20
-15.20575415357354
 30
0.0
 11
-115.7458026484594
 21
-15.04880498017619
 31
0.0
  0
LINE
  5
F7
330
1F
100
AcDbEntity
  8
0
100
AcDbLine
 10
-115.7458026484594
 20
-15.04880498017619
 30
0.0
 11
-118.9401713627837
 21
-14.67902025929726
 31
0.0
  0
LINE
  5
F8
330
1F
100
AcDbEntity
  8
0
100
AcDbLine
 10
-107.5619997651568
 20
-38.67662670381577
 30
0.0
 11
-112.2532363196878
 21
-38.76504404259475
 31
0.0
  0
LINE
  5
F9
330
1F
100
AcDbEntity
  8
0
100
AcDbLine
 10
-93.68666358408444
 20
-36.56420848685134
 30
0.0
 11
-98.25865469509878
 21
-37.57388786370249
 31
0.0
  0
LINE
  5
FA
330
1F
100
AcDbEntity
  8
0
100
AcDbLine
 10
-89.19419107629989
 20
-35.25423211975922
 30
0.0
 11
-93.68666358408444
 21
-36.56420848685134
 31
0.0
  0
LINE
  5
FB
330
1F
100
AcDbEntity
  8
0
100
AcDbLine
 10
-84.80065521824332
 20
-33.64948151753256
 30
0.0
 11
-89.19419107629989
 21
-35.25423211975922
 31
0.0
  0
LINE
  5
FC
330
1F
100
AcDbEntity
  8
0
100
AcDbLine
 10
-80.52507527524217
 20
-31.75672881838508
 30
0.0
 11
-84.80065521824332
 21
-33.64948151753256
 31
0.0
  0
LINE
  5
FD
330
1F
100
AcDbEntity
  8
0
100
AcDbLine
 10
-68.58866230905961
 20
-24.43637144458991
 30
0.0
 11
-72.40140213381049
 21
-27.14040039312013
 31
0.0
  0
LINE
  5
FE
330
1F
100
AcDbEntity
  8
0
100
AcDbLine
 10
-90.15299307066267
 20
1.050218820998742
 30
0.0
 11
-94.3768557807348
 21
6.759731754533286
 31
0.0
  0
LINE
  5
FF
330
1F
100
AcDbEntity
  8
0
100
AcDbLine
 10
-99.04205746977622
 20
4.289733860232479
 30
0.0
 11
-101.0684544200005
 21
3.707987791062865
 31
0.0
  0
LINE
  5
100
330
1F
100
AcDbEntity
  8
0
100
AcDbLine
 10
-104.3455786764991
 20
1.975539055431423
 30
0.0
 11
-106.4801228507686
 21
1.362798695787577
 31
0.0
  0
LINE
  5
101
330
1F
100
AcDbEntity
  8
0
100
AcDbLine
 10
-107.3042046799634
 20
2.650699825284185
 30
0.0
 11
-109.4137752030512
 21
2.531135870282118
 31
0.0
  0
LINE
  5
102
330
1F
100
AcDbEntity
  8
0
100
AcDbLine
 10
-113.0490640555876
 20
0.2491911844179866
 30
0.0
 11
-115.2714962177396
 21
0.1232591721481711
 31
0.0
  0
LINE
  5
103
330
1F
100
AcDbEntity
  8
0
100
AcDbLine
 10
-120.5244705338086
 20
-6.753233773128107
 30
0.0
 11
-119.7248735553728
 21
0.242134332684941
 31
0.0
  0
LINE
  5
104
330
1F
100
AcDbEntity
  8
0
100
AcDbLine
 10
-113.6407713631211
 20
2.643999824780855
 30
0.0
 11
-119.7248735553728
 21
0.242134332684941
 31
0.0
  0
LINE
  5
105
330
1F
100
AcDbEntity
  8
0
100
AcDbLine
 10
-100.1984520830714
 20
3.552781216864449
 30
0.0
 11
-102.2495487057832
 21
2.706268697230213
 31
0.0
  0
LINE
  5
106
330
1F
100
AcDbEntity
  8
0
100
AcDbLine
 10
-97.84604316010727
 20
4.706716238948868
 30
0.0
 11
-99.04205746977622
 21
4.289733860232479
 31
0.0
  0
LINE
  5
107
330
1F
100
AcDbEntity
  8
0
100
AcDbLine
 10
-102.2495487057832
 20
2.706268697230213
 30
0.0
 11
-104.3455786764991
 21
1.975539055431423
 31
0.0
  0
LINE
  5
108
330
1F
100
AcDbEntity
  8
0
100
AcDbLine
 10
-94.3768557807348
 20
6.759731754533286
 30
0.0
 11
-96.2560546939988
 21
5.58258172025966
 31
0.0
  0
LINE
  5
109
330
1F
100
AcDbEntity
  8
0
100
AcDbLine
 10
-90.15299307066267
 20
1.050218820998742
 30
0.0
 11
-92.4056123683395
 21
-0.3585865672167783
 31
0.0
  0
LINE
  5
10A
330
1F
100
AcDbEntity
  8
0
100
AcDbLine
 10
-92.4056123683395
 20
-0.3585865672167783
 30
0.0
 11
-94.73382222741695
 21
-1.639212538577493
 31
0.0
  0
LINE
  5
10B
330
1F
100
AcDbEntity
  8
0
100
AcDbLine
 10
-94.73382222741695
 20
-1.639212538577493
 30
0.0
 11
-97.13049770844422
 21
-2.787811292042582
 31
0.0
  0
LINE
  5
10C
330
1F
100
AcDbEntity
  8
0
100
AcDbLine
 10
-97.13049770844422
 20
-2.787811292042582
 30
0.0
 11
-99.58831400820023
 21
-3.800934505907732
 31
0.0
  0
LINE
  5
10D
330
1F
100
AcDbEntity
  8
0
100
AcDbLine
 10
-99.58831400820023
 20
-3.800934505907732
 30
0.0
 11
-102.0997681028529
 21
-4.67554277001287
 31
0.0
  0
LINE
  5
10E
330
1F
100
AcDbEntity
  8
0
100
AcDbLine
 10
-102.0997681028529
 20
-4.67554277001287
 30
0.0
 11
-104.6572008130264
 21
-5.409013872955925
 31
0.0
  0
LINE
  5
10F
330
1F
100
AcDbEntity
  8
0
100
AcDbLine
 10
-104.6572008130264
 20
-5.409013872955925
 30
0.0
 11
-107.2528192361781
 21
-5.999149931820694
 31
0.0
  0
LINE
  5
110
330
1F
100
AcDbEntity
  8
0
100
AcDbLine
 10
-107.2528192361781
 20
-5.999149931820694
 30
0.0
 11
-109.8787194919005
 21
-6.444183353910943
 31
0.0
  0
LINE
  5
111
330
1F
100
AcDbEntity
  8
0
100
AcDbLine
 10
-109.8787194919005
 20
-6.444183353910943
 30
0.0
 11
-112.526909725951
 21
-6.742781621893506
 31
0.0
  0
LINE
  5
112
330
1F
100
AcDbEntity
  8
0
100
AcDbLine
 10
-112.526909725951
 20
-6.742781621893506
 30
0.0
 11
-115.1893333189954
 21
-6.894050895563444
 31
0.0
  0
LINE
  5
113
330
1F
100
AcDbEntity
  8
0
100
AcDbLine
 10
-115.1893333189954
 20
-6.894050895563444
 30
0.0
 11
-117.8578922461861
 21
-6.897538425193565
 31
0.0
  0
LINE
  5
114
330
1F
100
AcDbEntity
  8
0
100
AcDbLine
 10
-117.8578922461861
 20
-6.897538425193565
 30
0.0
 11
-120.5244705338086
 21
-6.753233773128107
 31
0.0
  0
LINE
  5
115
330
1F
100
AcDbEntity
  8
0
100
AcDbLine
 10
-117.4990348116365
 20
0.1209045218072644
 30
0.0
 11
-119.7248735553728
 21
0.242134332684941
 31
0.0
  0
LINE
  5
116
330
1F
100
AcDbEntity
  8
0
100
AcDbLine
 10
-115.2714962177396
 20
0.1232591721481711
 30
0.0
 11
-117.4990348116365
 21
0.1209045218072644
 31
0.0
  0
LINE
  5
117
330
1F
100
AcDbEntity
  8
0
100
AcDbLine
 10
-110.8385294979785
 20
0.4983208564172607
 30
0.0
 11
-113.0490640555876
 21
0.2491911844179866
 31
0.0
  0
LINE
  5
118
330
1F
100
AcDbEntity
  8
0
100
AcDbLine
 10
-108.6466486789267
 20
0.8698969346034063
 30
0.0
 11
-110.8385294979785
 21
0.4983208564172607
 31
0.0
  0
LINE
  5
119
330
1F
100
AcDbEntity
  8
0
100
AcDbLine
 10
-106.4801228507686
 20
1.362798695787577
 30
0.0
 11
-108.6466486789267
 21
0.8698969346034063
 31
0.0
  0
LINE
  5
11A
330
1F
100
AcDbEntity
  8
0
100
AcDbLine
 10
-98.19857553622238
 20
4.512519270942288
 30
0.0
 11
-100.1984520830714
 21
3.552781216864449
 31
0.0
  0
LINE
  5
11B
330
1F
100
AcDbEntity
  8
0
100
AcDbLine
 10
-103.1251528293389
 20
3.240015639998599
 30
0.0
 11
-105.2058580630219
 21
2.887231158832993
 31
0.0
  0
LINE
  5
11C
330
1F
100
AcDbEntity
  8
0
100
AcDbLine
 10
-101.0684544200005
 20
3.707987791062865
 30
0.0
 11
-103.1251528293389
 21
3.240015639998599
 31
0.0
  0
LINE
  5
11D
330
1F
100
AcDbEntity
  8
0
100
AcDbLine
 10
-111.5281190193067
 20
2.528900286945764
 30
0.0
 11
-113.6407713631211
 21
2.643999824780855
 31
0.0
  0
LINE
  5
11E
330
1F
100
AcDbEntity
  8
0
100
AcDbLine
 10
-109.4137752030512
 20
2.531135870282118
 30
0.0
 11
-111.5281190193067
 21
2.528900286945764
 31
0.0
  0
LINE
  5
11F
330
1F
100
AcDbEntity
  8
0
100
AcDbLine
 10
-105.2058580630219
 20
2.887231158832993
 30
0.0
 11
-107.3042046799634
 21
2.650699825284185
 31
0.0
  0
LINE
  5
120
330
1F
100
AcDbEntity
  8
0
100
AcDbLine
 10
-90.15299307066267
 20
1.050218820998742
 30
0.0
 11
-94.73382222741695
 21
-1.639212538577493
 31
0.0
  0
LINE
  5
121
330
1F
100
AcDbEntity
  8
0
100
AcDbLine
 10
-120.5244705338086
 20
-6.753233773128107
 30
0.0
 11
-112.526909725951
 21
-6.742781621893506
 31
0.0
  0
LINE
  5
122
330
1F
100
AcDbEntity
  8
0
100
AcDbLine
 10
-94.73382222741695
 20
-1.639212538577493
 30
0.0
 11
-102.0997681028529
 21
-4.67554277001287
 31
0.0
  0
LINE
  5
123
330
1F
100
AcDbEntity
  8
0
100
AcDbLine
 10
-109.8787194919005
 20
-6.444183353910943
 30
0.0
 11
-102.0997681028529
 21
-4.67554277001287
 31
0.0
  0
LINE
  5
124
330
1F
100
AcDbEntity
  8
0
100
AcDbLine
 10
-169.5349396587864
 20
-14.04271606591609
 30
0.0
 11
-172.4048312582594
 21
-12.97278264402408
 31
0.0
  0
LINE
  5
125
330
1F
100
AcDbEntity
  8
0
100
AcDbLine
 10
-174.7043314033571
 20
-15.91945928630382
 30
0.0
 11
-177.6623655151016
 21
-14.81712461206441
 31
0.0
  0
LINE
  5
126
330
1F
100
AcDbEntity
  8
0
100
AcDbLine
 10
-187.7111793159812
 20
-57.50617485018812
 30
0.0
 11
-183.1017761930878
 21
-58.87356582555542
 31
0.0
  0
LINE
  5
127
330
1F
100
AcDbEntity
  8
0
100
AcDbLine
 10
-175.2008039665022
 20
-11.71522374299039
 30
0.0
 11
-177.9104905454886
 21
-10.27551069013181
 31
0.0
  0
LINE
  5
128
330
1F
100
AcDbEntity
  8
0
100
AcDbLine
 10
-177.9104905454886
 20
-10.27551069013181
 30
0.0
 11
-183.3375732024301
 21
-12.03813504732501
 31
0.0
  0
LINE
  5
129
330
1F
100
AcDbEntity
  8
0
100
AcDbLine
 10
-180.5443605767167
 20
-13.52147244320459
 30
0.0
 11
-183.3375732024301
 21
-12.03813504732501
 31
0.0
  0
LINE
  5
12A
330
1F
100
AcDbEntity
  8
0
100
AcDbLine
 10
-202.7706573086807
 20
-42.1316195933111
 30
0.0
 11
-206.3283104032947
 21
-48.79922946953634
 31
0.0
  0
LINE
  5
12B
330
1F
100
AcDbEntity
  8
0
100
AcDbLine
 10
-164.1382044863454
 20
-61.25554648092309
 30
0.0
 11
-159.3621546757344
 21
-61.06735466113547
 31
0.0
  0
LINE
  5
12C
330
1F
100
AcDbEntity
  8
0
100
AcDbLine
 10
-194.8775262978299
 20
-33.65087281462441
 30
0.0
 11
-183.3375732024301
 21
-12.03813504732501
 31
0.0
  0
LINE
  5
12D
330
1F
100
AcDbEntity
  8
0
100
AcDbLine
 10
-181.9490809210091
 20
-39.41515183980007
 30
0.0
 11
-186.376370066095
 21
-37.77787030495077
 31
0.0
  0
LINE
  5
12E
330
1F
100
AcDbEntity
  8
0
100
AcDbLine
 10
-177.4293868762107
 20
-40.75866781208475
 30
0.0
 11
-181.9490809210091
 21
-39.41515183980007
 31
0.0
  0
LINE
  5
12F
330
1F
100
AcDbEntity
  8
0
100
AcDbLine
 10
-168.1912147871923
 20
-42.54300965201802
 30
0.0
 11
-172.8368227160604
 21
-41.80275334921662
 31
0.0
  0
LINE
  5
130
330
1F
100
AcDbEntity
  8
0
100
AcDbLine
 10
-163.5126010547843
 20
-42.97631984802118
 30
0.0
 11
-168.1912147871923
 21
-42.54300965201802
 31
0.0
  0
LINE
  5
131
330
1F
100
AcDbEntity
  8
0
100
AcDbLine
 10
-154.1370828017132
 20
-42.91610661076579
 30
0.0
 11
-158.8211506030836
 21
-43.10086019262265
 31
0.0
  0
LINE
  5
132
330
1F
100
AcDbEntity
  8
0
100
AcDbLine
 10
-146.8768121860743
 20
-16.6415043027706
 30
0.0
 11
-149.9115447974692
 21
-17.38855298999023
 31
0.0
  0
LINE
  5
133
330
1F
100
AcDbEntity
  8
0
100
AcDbLine
 10
-149.9115447974692
 20
-17.38855298999023
 30
0.0
 11
-152.9925410413681
 21
-17.93112043510808
 31
0.0
  0
LINE
  5
134
330
1F
100
AcDbEntity
  8
0
100
AcDbLine
 10
-152.9925410413681
 20
-17.93112043510808
 30
0.0
 11
-156.1062237394576
 21
-18.26685354801512
 31
0.0
  0
LINE
  5
135
330
1F
100
AcDbEntity
  8
0
100
AcDbLine
 10
-156.1062237394576
 20
-18.26685354801512
 30
0.0
 11
-159.2388779284783
 21
-18.39429669596034
 31
0.0
  0
LINE
  5
136
330
1F
100
AcDbEntity
  8
0
100
AcDbLine
 10
-159.2388779284783
 20
-18.39429669596034
 30
0.0
 11
-162.3767084994103
 21
-18.31289741104336
 31
0.0
  0
LINE
  5
137
330
1F
100
AcDbEntity
  8
0
100
AcDbLine
 10
-162.3767084994103
 20
-18.31289741104336
 30
0.0
 11
-162.3813437187524
 21
-18.31238975254426
 31
0.0
  0
LINE
  5
138
330
1F
100
AcDbEntity
  8
0
100
AcDbLine
 10
-162.3813437187524
 20
-18.31238975254426
 30
0.0
 11
-165.5058981134977
 21
-18.02300855492981
 31
0.0
  0
LINE
  5
139
330
1F
100
AcDbEntity
  8
0
100
AcDbLine
 10
-165.5058981134977
 20
-18.02300855492981
 30
0.0
 11
-168.6126652016529
 21
-17.52588693634119
 31
0.0
  0
LINE
  5
13A
330
1F
100
AcDbEntity
  8
0
100
AcDbLine
 10
-168.6126652016529
 20
-17.52588693634119
 30
0.0
 11
-171.6833218536715
 21
-16.82368838415802
 31
0.0
  0
LINE
  5
13B
330
1F
100
AcDbEntity
  8
0
100
AcDbLine
 10
-171.6833218536715
 20
-16.82368838415802
 30
0.0
 11
-174.7043314033571
 21
-15.91945928630382
 31
0.0
  0
LINE
  5
13C
330
1F
100
AcDbEntity
  8
0
100
AcDbLine
 10
-177.6623655151016
 20
-14.81712461206441
 30
0.0
 11
-180.5443605767167
 21
-13.52147244320459
 31
0.0
  0
LINE
  5
13D
330
1F
100
AcDbEntity
  8
0
100
AcDbLine
 10
-166.6038082908324
 20
-14.92037259718969
 30
0.0
 11
-169.5349396587864
 21
-14.04271606591609
 31
0.0
  0
LINE
  5
13E
330
1F
100
AcDbEntity
  8
0
100
AcDbLine
 10
-168.9195682763458
 20
-61.12914264545788
 30
0.0
 11
-164.1382044863454
 21
-61.25554648092309
 31
0.0
  0
LINE
  5
13F
330
1F
100
AcDbEntity
  8
0
100
AcDbLine
 10
-142.5311529532681
 20
-14.74354194265986
 30
0.0
 11
-145.4764489563408
 21
-15.46864014683681
 31
0.0
  0
LINE
  5
140
330
1F
100
AcDbEntity
  8
0
100
AcDbLine
 10
-141.4214439455055
 20
-49.84969132431578
 30
0.0
 11
-139.3999459807117
 21
-57.21260396076687
 31
0.0
  0
LINE
  5
141
330
1F
100
AcDbEntity
  8
0
100
AcDbLine
 10
-200.9231477200051
 20
-51.63315934226097
 30
0.0
 11
-206.3283104032947
 21
-48.79922946953634
 31
0.0
  0
LINE
  5
142
330
1F
100
AcDbEntity
  8
0
100
AcDbLine
 10
-200.9231477200051
 20
-51.63315934226097
 30
0.0
 11
-196.6400867285898
 21
-53.87877065897473
 31
0.0
  0
LINE
  5
143
330
1F
100
AcDbEntity
  8
0
100
AcDbLine
 10
-196.6400867285898
 20
-53.87877065897473
 30
0.0
 11
-192.2300918530631
 21
-55.83903811967935
 31
0.0
  0
LINE
  5
144
330
1F
100
AcDbEntity
  8
0
100
AcDbLine
 10
-192.2300918530631
 20
-55.83903811967935
 30
0.0
 11
-187.7111793159812
 21
-57.50617485018812
 31
0.0
  0
LINE
  5
145
330
1F
100
AcDbEntity
  8
0
100
AcDbLine
 10
-183.1017761930878
 20
-58.87356582555542
 30
0.0
 11
-178.420649704015
 21
-59.93579094248172
 31
0.0
  0
LINE
  5
146
330
1F
100
AcDbEntity
  8
0
100
AcDbLine
 10
-178.420649704015
 20
-59.93579094248172
 30
0.0
 11
-173.6868359954587
 21
-60.6886431809665
 31
0.0
  0
LINE
  5
147
330
1F
100
AcDbEntity
  8
0
100
AcDbLine
 10
-173.6868359954587
 20
-60.6886431809665
 30
0.0
 11
-168.9195682763458
 21
-61.12914264545788
 31
0.0
  0
LINE
  5
148
330
1F
100
AcDbEntity
  8
0
100
AcDbLine
 10
-159.3621546757344
 20
-61.06735466113547
 30
0.0
 11
-154.6108082724179
 21
-60.56531164779249
 31
0.0
  0
LINE
  5
149
330
1F
100
AcDbEntity
  8
0
100
AcDbLine
 10
-154.6108082724179
 20
-60.56531164779249
 30
0.0
 11
-149.9034614108164
 21
-59.75140392009699
 31
0.0
  0
LINE
  5
14A
330
1F
100
AcDbEntity
  8
0
100
AcDbLine
 10
-149.9034614108164
 20
-59.75140392009699
 30
0.0
 11
-145.2592452241308
 21
-58.62885252819989
 31
0.0
  0
LINE
  5
14B
330
1F
100
AcDbEntity
  8
0
100
AcDbLine
 10
-145.2592452241308
 20
-58.62885252819989
 30
0.0
 11
-139.3999459807117
 21
-57.21260396076687
 31
0.0
  0
LINE
  5
14C
330
1F
100
AcDbEntity
  8
0
100
AcDbLine
 10
-154.5283391131537
 20
-16.44483769814727
 30
0.0
 11
-157.5733060907941
 21
-16.36582947739497
 31
0.0
  0
LINE
  5
14D
330
1F
100
AcDbEntity
  8
0
100
AcDbLine
 10
-148.4665558458346
 20
-15.99526756976643
 30
0.0
 11
-151.4882912173383
 21
-16.32113814877863
 31
0.0
  0
LINE
  5
14E
330
1F
100
AcDbEntity
  8
0
100
AcDbLine
 10
-163.6243742074224
 20
-15.60193920095647
 30
0.0
 11
-166.6038082908324
 21
-14.92037259718969
 31
0.0
  0
LINE
  5
14F
330
1F
100
AcDbEntity
  8
0
100
AcDbLine
 10
-151.4882912173383
 20
-16.32113814877863
 30
0.0
 11
-154.5283391131537
 21
-16.44483769814727
 31
0.0
  0
LINE
  5
150
330
1F
100
AcDbEntity
  8
0
100
AcDbLine
 10
-157.5778039324539
 20
-16.36533673124673
 30
0.0
 11
-160.6097775613279
 21
-16.08445630327974
 31
0.0
  0
LINE
  5
151
330
1F
100
AcDbEntity
  8
0
100
AcDbLine
 10
-172.4048312582594
 20
-12.97278264402408
 30
0.0
 11
-175.2008039665022
 21
-11.71522374299039
 31
0.0
  0
LINE
  5
152
330
1F
100
AcDbEntity
  8
0
100
AcDbLine
 10
-137.2917701880996
 20
-38.61424188003609
 30
0.0
 11
-140.3304242899438
 21
-40.52034338911263
 31
0.0
  0
LINE
  5
153
330
1F
100
AcDbEntity
  8
0
100
AcDbLine
 10
-132.3582752178289
 20
-51.92279165722333
 30
0.0
 11
-139.3999459807117
 21
-57.21260396076687
 31
0.0
  0
LINE
  5
154
330
1F
100
AcDbEntity
  8
0
100
AcDbLine
 10
-136.0588388528195
 20
-38.39818289436435
 30
0.0
 11
-132.3582752178289
 21
-51.92279165722333
 31
0.0
  0
LINE
  5
155
330
1F
100
AcDbEntity
  8
0
100
AcDbLine
 10
-145.4764489563408
 20
-15.46864014683681
 30
0.0
 11
-148.4665558458346
 21
-15.99526756976643
 31
0.0
  0
LINE
  5
156
330
1F
100
AcDbEntity
  8
0
100
AcDbLine
 10
-157.5733060907941
 20
-16.36582947739497
 30
0.0
 11
-157.5778039324539
 21
-16.36533673124673
 31
0.0
  0
LINE
  5
157
330
1F
100
AcDbEntity
  8
0
100
AcDbLine
 10
-160.6097775613279
 20
-16.08445630327974
 30
0.0
 11
-163.6243742074224
 21
-15.60193920095647
 31
0.0
  0
LINE
  5
158
330
1F
100
AcDbEntity
  8
0
100
AcDbLine
 10
-140.3304242899438
 20
-40.52034338911263
 30
0.0
 11
-142.6012189362997
 21
-41.07176825807173
 31
0.0
  0
LINE
  5
159
330
1F
100
AcDbEntity
  8
0
100
AcDbLine
 10
-192.7845552039931
 20
-34.75243643224687
 30
0.0
 11
-194.8775262978299
 21
-33.65087281462441
 31
0.0
  0
LINE
  5
15A
330
1F
100
AcDbEntity
  8
0
100
AcDbLine
 10
-142.6012189362997
 20
-41.07176825807173
 30
0.0
 11
-147.1762636592065
 21
-42.02299901541587
 31
0.0
  0
LINE
  5
15B
330
1F
100
AcDbEntity
  8
0
100
AcDbLine
 10
-147.1762636592065
 20
-42.02299901541587
 30
0.0
 11
-161.1668597770064
 21
-43.03859044643983
 31
0.0
  0
LINE
  5
15C
330
1F
100
AcDbEntity
  8
0
100
AcDbLine
 10
-192.7845552039931
 20
-34.75243643224687
 30
0.0
 11
-188.5340021762694
 21
-36.81590362687607
 31
0.0
  0
LINE
  5
15D
330
1F
100
AcDbEntity
  8
0
100
AcDbLine
 10
-175.132973086539
 20
-41.28074052385455
 30
0.0
 11
-161.1668597770064
 21
-43.03859044643983
 31
0.0
  0
LINE
  5
15E
330
1F
100
AcDbEntity
  8
0
100
AcDbLine
 10
-188.5340021762694
 20
-36.81590362687607
 30
0.0
 11
-175.132973086539
 21
-41.28074052385455
 31
0.0
  0
LINE
  5
15F
330
1F
100
AcDbEntity
  8
0
100
AcDbLine
 10
56.58651179559955
 20
34.93715991089775
 30
0.0
 11
53.13581283621312
 21
37.94879680316145
 31
0.0
  0
LINE
  5
160
330
1F
100
AcDbEntity
  8
0
100
AcDbLine
 10
58.32146659483562
 20
34.55177207184034
 30
0.0
 11
54.765519449646
 21
37.65564729571084
 31
0.0
  0
LINE
  5
161
330
1F
100
AcDbEntity
  8
0
100
AcDbLine
 10
68.02126483804382
 20
27.38215824732155
 30
0.0
 11
64.0455390235479
 21
29.64259326544182
 31
0.0
  0
LINE
  5
162
330
1F
100
AcDbEntity
  8
0
100
AcDbLine
 10
70.10504227123673
 20
26.76565589684061
 30
0.0
 11
66.00802169868483
 21
29.09519851557202
 31
0.0
  0
LINE
  5
163
330
1F
100
AcDbEntity
  8
0
100
AcDbLine
 10
49.89146325377572
 20
41.18657533143639
 30
0.0
 11
46.8677715213577
 21
44.63667264022883
 31
0.0
  0
LINE
  5
164
330
1F
100
AcDbEntity
  8
0
100
AcDbLine
 10
51.42221997249673
 20
40.99265993376456
 30
0.0
 11
48.30631290809585
 21
44.54857812181283
 31
0.0
  0
LINE
  5
165
330
1F
100
AcDbEntity
  8
0
100
AcDbLine
 10
71.25922969352084
 20
55.11614043292825
 30
0.0
 11
68.97641161986668
 21
57.40057618097472
 31
0.0
  0
LINE
  5
166
330
1F
100
AcDbEntity
  8
0
100
AcDbLine
 10
73.68894510438172
 20
52.99189661382384
 30
0.0
 11
71.25922969352084
 21
55.11614043292825
 31
0.0
  0
LINE
  5
167
330
1F
100
AcDbEntity
  8
0
100
AcDbLine
 10
81.74858665871966
 20
47.66900846150761
 30
0.0
 11
78.94526990108476
 21
49.26022409447673
 31
0.0
  0
LINE
  5
168
330
1F
100
AcDbEntity
  8
0
100
AcDbLine
 10
78.94526990108476
 20
49.26022409447673
 30
0.0
 11
76.2547526696217
 21
51.03709181453604
 31
0.0
  0
LINE
  5
169
330
1F
100
AcDbEntity
  8
0
100
AcDbLine
 10
76.2547526696217
 20
51.03709181453604
 30
0.0
 11
73.68894510438172
 21
52.99189661382384
 31
0.0
  0
LINE
  5
16A
330
1F
100
AcDbEntity
  8
0
100
AcDbLine
 10
54.765519449646
 20
37.65564729571084
 30
0.0
 11
51.42221997249673
 21
40.99265993376456
 31
0.0
  0
LINE
  5
16B
330
1F
100
AcDbEntity
  8
0
100
AcDbLine
 10
66.00802169868483
 20
29.09519851557202
 30
0.0
 11
62.07444249886011
 21
31.69424354289351
 31
0.0
  0
LINE
  5
16C
330
1F
100
AcDbEntity
  8
0
100
AcDbLine
 10
53.13581283621312
 20
37.94879680316145
 30
0.0
 11
49.89146325377572
 21
41.18657533143639
 31
0.0
  0
LINE
  5
16D
330
1F
100
AcDbEntity
  8
0
100
AcDbLine
 10
64.0455390235479
 20
29.64259326544182
 30
0.0
 11
60.22840154139824
 21
32.16449541372567
 31
0.0
  0
LINE
  5
16E
330
1F
100
AcDbEntity
  8
0
100
AcDbLine
 10
66.85067116279372
 20
59.83524497248584
 30
0.0
 11
48.30631290809585
 21
44.54857812181283
 31
0.0
  0
LINE
  5
16F
330
1F
100
AcDbEntity
  8
0
100
AcDbLine
 10
48.30631290809585
 20
44.54857812181283
 30
0.0
 11
46.8677715213577
 21
44.63667264022883
 31
0.0
  0
LINE
  5
170
330
1F
100
AcDbEntity
  8
0
100
AcDbLine
 10
-38.27877508279214
 20
22.71012753816386
 30
0.0
 11
-39.15392523831606
 21
18.26035282250767
 31
0.0
  0
LINE
  5
171
330
1F
100
AcDbEntity
  8
0
100
AcDbLine
 10
-39.15392523831606
 20
18.26035282250767
 30
0.0
 11
-40.33282421766761
 21
13.84276366343497
 31
0.0
  0
LINE
  5
172
330
1F
100
AcDbEntity
  8
0
100
AcDbLine
 10
-41.80163819758589
 20
9.51851356226179
 30
0.0
 11
-43.553529468439
 21
5.306394139467944
 31
0.0
  0
LINE
  5
173
330
1F
100
AcDbEntity
  8
0
100
AcDbLine
 10
-43.553529468439
 20
5.306394139467944
 30
0.0
 11
-45.58045201042746
 21
1.224658238491696
 31
0.0
  0
LINE
  5
174
330
1F
100
AcDbEntity
  8
0
100
AcDbLine
 10
-45.58045201042746
 20
1.224658238491696
 30
0.0
 11
-47.87319244555693
 21
-2.709054744230116
 31
0.0
  0
LINE
  5
175
330
1F
100
AcDbEntity
  8
0
100
AcDbLine
 10
-47.87319244555693
 20
-2.709054744230116
 30
0.0
 11
-50.42141532173864
 21
-6.477790177415027
 31
0.0
  0
LINE
  5
176
330
1F
100
AcDbEntity
  8
0
100
AcDbLine
 10
-50.42141532173864
 20
-6.477790177415027
 30
0.0
 11
-53.21371245328074
 21
-10.06534596205949
 31
0.0
  0
LINE
  5
177
330
1F
100
AcDbEntity
  8
0
100
AcDbLine
 10
-53.21371245328074
 20
-10.06534596205949
 30
0.0
 11
-56.23765603992852
 21
-13.4563365721444
 31
0.0
  0
LINE
  5
178
330
1F
100
AcDbEntity
  8
0
100
AcDbLine
 10
-71.32441183682573
 20
5.783712676532235
 30
0.0
 11
-73.28695917387971
 21
3.254282024894317
 31
0.0
  0
LINE
  5
179
330
1F
100
AcDbEntity
  8
0
100
AcDbLine
 10
-61.29296033264951
 20
-18.59150493649637
 30
0.0
 11
-64.84352942430041
 21
-21.63617363002591
 31
0.0
  0
LINE
  5
17A
330
1F
100
AcDbEntity
  8
0
100
AcDbLine
 10
-64.26432773622845
 20
20.10914180240759
 30
0.0
 11
-65.2864625555769
 21
17.06159161041527
 31
0.0
  0
LINE
  5
17B
330
1F
100
AcDbEntity
  8
0
100
AcDbLine
 10
-64.84352942430041
 20
-21.63617363002591
 30
0.0
 11
-68.58866230905961
 21
-24.43637144458991
 31
0.0
  0
LINE
  5
17C
330
1F
100
AcDbEntity
  8
0
100
AcDbLine
 10
-40.35214501155125
 20
17.36532969518248
 30
0.0
 11
-41.56650820075766
 21
12.81306191382022
 31
0.0
  0
LINE
  5
17D
330
1F
100
AcDbEntity
  8
0
100
AcDbLine
 10
-54.83701225869314
 20
-11.8216009832375
 30
0.0
 11
-57.95254571830792
 21
-15.31532318679788
 31
0.0
  0
LINE
  5
17E
330
1F
100
AcDbEntity
  8
0
100
AcDbLine
 10
-56.23765603992852
 20
-13.4563365721444
 30
0.0
 11
-57.95254571830792
 21
-15.31532318679788
 31
0.0
  0
LINE
  5
17F
330
1F
100
AcDbEntity
  8
0
100
AcDbLine
 10
-69.53542027854887
 20
8.441060591511157
 30
0.0
 11
-71.32441183682573
 21
5.783712676532235
 31
0.0
  0
LINE
  5
180
330
1F
100
AcDbEntity
  8
0
100
AcDbLine
 10
-65.2864625555769
 20
17.06159161041527
 30
0.0
 11
-66.5095740206109
 21
14.09241256865674
 31
0.0
  0
LINE
  5
181
330
1F
100
AcDbEntity
  8
0
100
AcDbLine
 10
-63.44790781692635
 20
23.22161132782487
 30
0.0
 11
-64.26432773622845
 21
20.10914180240759
 31
0.0
  0
LINE
  5
182
330
1F
100
AcDbEntity
  8
0
100
AcDbLine
 10
-51.96015793868092
 20
-8.125272414440973
 30
0.0
 11
-54.83701225869314
 21
-11.8216009832375
 31
0.0
  0
LINE
  5
183
330
1F
100
AcDbEntity
  8
0
100
AcDbLine
 10
-66.5095740206109
 20
14.09241256865674
 30
0.0
 11
-67.92804759245851
 21
11.21468465444159
 31
0.0
  0
LINE
  5
184
330
1F
100
AcDbEntity
  8
0
100
AcDbLine
 10
-67.92804759245851
 20
11.21468465444159
 30
0.0
 11
-69.53542027854887
 21
8.441060591511157
 31
0.0
  0
LINE
  5
185
330
1F
100
AcDbEntity
  8
0
100
AcDbLine
 10
-73.28695917387971
 20
3.254282024894317
 30
0.0
 11
-75.41425375132793
 21
0.8638303992593936
 31
0.0
  0
LINE
  5
186
330
1F
100
AcDbEntity
  8
0
100
AcDbLine
 10
-75.41425375132793
 20
0.8638303992593936
 30
0.0
 11
-77.69678180991114
 21
-1.377205230607543
 31
0.0
  0
LINE
  5
187
330
1F
100
AcDbEntity
  8
0
100
AcDbLine
 10
-77.69678180991114
 20
-1.377205230607543
 30
0.0
 11
-80.12436721711374
 21
-3.459055262610736
 31
0.0
  0
LINE
  5
188
330
1F
100
AcDbEntity
  8
0
100
AcDbLine
 10
-80.12436721711374
 20
-3.459055262610736
 30
0.0
 11
-82.68621647710178
 21
-5.372657408942787
 31
0.0
  0
LINE
  5
189
330
1F
100
AcDbEntity
  8
0
100
AcDbLine
 10
-57.95254571830792
 20
-15.31532318679788
 30
0.0
 11
-61.29296033264951
 21
-18.59150493649637
 31
0.0
  0
LINE
  5
18A
330
1F
100
AcDbEntity
  8
0
100
AcDbLine
 10
-49.33479036605009
 20
-4.242175512618428
 30
0.0
 11
-51.96015793868092
 21
-8.125272414440973
 31
0.0
  0
LINE
  5
18B
330
1F
100
AcDbEntity
  8
0
100
AcDbLine
 10
-46.97266836949034
 20
-0.1889905719962554
 30
0.0
 11
-49.33479036605009
 21
-4.242175512618428
 31
0.0
  0
LINE
  5
18C
330
1F
100
AcDbEntity
  8
0
100
AcDbLine
 10
-44.88444716454845
 20
4.016825541029568
 30
0.0
 11
-46.97266836949034
 21
-0.1889905719962554
 31
0.0
  0
LINE
  5
18D
330
1F
100
AcDbEntity
  8
0
100
AcDbLine
 10
-43.07962737537019
 20
8.357108933805092
 30
0.0
 11
-44.88444716454845
 21
4.016825541029568
 31
0.0
  0
LINE
  5
18E
330
1F
100
AcDbEntity
  8
0
100
AcDbLine
 10
-84.4636373626752
 20
18.5872571710011
 30
0.0
 11
-85.5851382753318
 21
16.66939823898933
 31
0.0
  0
LINE
  5
18F
330
1F
100
AcDbEntity
  8
0
100
AcDbLine
 10
-89.56463777254592
 20
11.34051785496139
 30
0.0
 11
-91.08236162314121
 21
9.723833058015321
 31
0.0
  0
LINE
  5
190
330
1F
100
AcDbEntity
  8
0
100
AcDbLine
 10
-82.54968692534098
 20
22.60051975078253
 30
0.0
 11
-83.45075749398444
 21
20.56631515817986
 31
0.0
  0
LINE
  5
191
330
1F
100
AcDbEntity
  8
0
100
AcDbLine
 10
-83.45075749398444
 20
20.56631515817986
 30
0.0
 11
-84.4636373626752
 21
18.5872571710011
 31
0.0
  0
LINE
  5
192
330
1F
100
AcDbEntity
  8
0
100
AcDbLine
 10
-74.22018146077653
 20
25.0694813595236
 30
0.0
 11
-75.0249146970156
 21
22.52230849734999
 31
0.0
  0
LINE
  5
193
330
1F
100
AcDbEntity
  8
0
100
AcDbLine
 10
-75.0249146970156
 20
22.52230849734999
 30
0.0
 11
-75.96981124470503
 21
20.02631177507818
 31
0.0
  0
LINE
  5
194
330
1F
100
AcDbEntity
  8
0
100
AcDbLine
 10
-75.96981124470503
 20
20.02631177507818
 30
0.0
 11
-77.05185494539181
 21
17.58911468803112
 31
0.0
  0
LINE
  5
195
330
1F
100
AcDbEntity
  8
0
100
AcDbLine
 10
-77.05185494539181
 20
17.58911468803112
 30
0.0
 11
-78.26761618493637
 21
15.21814906418848
 31
0.0
  0
LINE
  5
196
330
1F
100
AcDbEntity
  8
0
100
AcDbLine
 10
-78.26761618493637
 20
15.21814906418848
 30
0.0
 11
-79.61326353610401
 21
12.92063332540747
 31
0.0
  0
LINE
  5
197
330
1F
100
AcDbEntity
  8
0
100
AcDbLine
 10
-79.61326353610401
 20
12.92063332540747
 30
0.0
 11
-81.08457650180651
 21
10.70355151282496
 31
0.0
  0
LINE
  5
198
330
1F
100
AcDbEntity
  8
0
100
AcDbLine
 10
-81.08457650180651
 20
10.70355151282496
 30
0.0
 11
-82.6769593090216
 21
8.573633124773522
 31
0.0
  0
LINE
  5
199
330
1F
100
AcDbEntity
  8
0
100
AcDbLine
 10
-82.6769593090216
 20
8.573633124773522
 30
0.0
 11
-84.3854557020436
 21
6.537333812041743
 31
0.0
  0
LINE
  5
19A
330
1F
100
AcDbEntity
  8
0
100
AcDbLine
 10
-84.3854557020436
 20
6.537333812041743
 30
0.0
 11
-86.20476468259668
 21
4.600816971877547
 31
0.0
  0
LINE
  5
19B
330
1F
100
AcDbEntity
  8
0
100
AcDbLine
 10
-86.20476468259668
 20
4.600816971877547
 30
0.0
 11
-88.1292571434472
 21
2.769936278800449
 31
0.0
  0
LINE
  5
19C
330
1F
100
AcDbEntity
  8
0
100
AcDbLine
 10
-88.1292571434472
 20
2.769936278800449
 30
0.0
 11
-90.15299307066267
 21
1.050218820998742
 31
0.0
  0
LINE
  5
19D
330
1F
100
AcDbEntity
  8
0
100
AcDbLine
 10
-92.6880899979081
 20
8.19535720417183
 30
0.0
 11
-94.3768557807348
 21
6.759731754533286
 31
0.0
  0
LINE
  5
19E
330
1F
100
AcDbEntity
  8
0
100
AcDbLine
 10
-91.08236162314121
 20
9.723833058015321
 30
0.0
 11
-92.6880899979081
 21
8.19535720417183
 31
0.0
  0
LINE
  5
19F
330
1F
100
AcDbEntity
  8
0
100
AcDbLine
 10
-88.1396228555234
 20
13.04049677872519
 30
0.0
 11
-89.56463777254592
 21
11.34051785496139
 31
0.0
  0
LINE
  5
1A0
330
1F
100
AcDbEntity
  8
0
100
AcDbLine
 10
-86.81174422220465
 20
14.81859612909944
 30
0.0
 11
-88.1396228555234
 21
13.04049677872519
 31
0.0
  0
LINE
  5
1A1
330
1F
100
AcDbEntity
  8
0
100
AcDbLine
 10
-85.5851382753318
 20
16.66939823898933
 30
0.0
 11
-86.81174422220465
 21
14.81859612909944
 31
0.0
  0
LINE
  5
1A2
330
1F
100
AcDbEntity
  8
0
100
AcDbLine
 10
-81.76327565248036
 20
24.68364162821598
 30
0.0
 11
-82.54968692534098
 21
22.60051975078253
 31
0.0
  0
LINE
  5
1A3
330
1F
100
AcDbEntity
  8
0
100
AcDbLine
 10
-81.09402585313899
 20
26.80929303250356
 30
0.0
 11
-81.76327565248036
 21
24.68364162821598
 31
0.0
  0
LINE
  5
1A4
330
1F
100
AcDbEntity
  8
0
100
AcDbLine
 10
-90.15299307066267
 20
1.050218820998742
 30
0.0
 11
-84.3854557020436
 21
6.537333812041743
 31
0.0
  0
LINE
  5
1A5
330
1F
100
AcDbEntity
  8
0
100
AcDbLine
 10
-75.0249146970156
 20
22.52230849734999
 30
0.0
 11
-78.26761618493637
 21
15.21814906418848
 31
0.0
  0
LINE
  5
1A6
330
1F
100
AcDbEntity
  8
0
100
AcDbLine
 10
-82.6769593090216
 20
8.573633124773522
 30
0.0
 11
-78.26761618493637
 21
15.21814906418848
 31
0.0
  0
LINE
  5
1A7
330
1F
100
AcDbEntity
  8
0
100
AcDbLine
 10
-26.22374725684952
 20
47.02173603137712
 30
0.0
 11
-24.0343024884019
 21
49.16798545799463
 31
0.0
  0
LINE
  5
1A8
330
1F
100
AcDbEntity
  8
0
100
AcDbLine
 10
-27.02886425608498
 20
47.00684374940047
 30
0.0
 11
-24.77237715453391
 21
49.21899923551261
 31
0.0
  0
LINE
  5
1A9
330
1F
100
AcDbEntity
  8
0
100
AcDbLine
 10
-60.53892235982382
 20
73.50796926956374
 30
0.0
 11
-63.75098429955654
 21
69.87275146503269
 31
0.0
  0
LINE
  5
1AA
330
1F
100
AcDbEntity
  8
0
100
AcDbLine
 10
-21.7052713305056
 20
51.16322015721444
 30
0.0
 11
-19.24710048326481
 21
52.99831466749555
 31
0.0
  0
LINE
  5
1AB
330
1F
100
AcDbEntity
  8
0
100
AcDbLine
 10
-19.24710048326481
 20
52.99831466749555
 30
0.0
 11
-19.8384177784628
 21
53.16702729673512
 31
0.0
  0
LINE
  5
1AC
330
1F
100
AcDbEntity
  8
0
100
AcDbLine
 10
-22.3719723957969
 20
51.27553115642747
 30
0.0
 11
-19.8384177784628
 21
53.16702729673512
 31
0.0
  0
LINE
  5
1AD
330
1F
100
AcDbEntity
  8
0
100
AcDbLine
 10
-40.01400913953169
 20
80.4172014384982
 30
0.0
 11
-44.62163157517482
 21
86.75122714013533
 31
0.0
  0
LINE
  5
1AE
330
1F
100
AcDbEntity
  8
0
100
AcDbLine
 10
-34.58877205586005
 20
73.47332051533812
 30
0.0
 11
-34.63387397450762
 21
73.50717947960682
 31
0.0
  0
LINE
  5
1AF
330
1F
100
AcDbEntity
  8
0
100
AcDbLine
 10
-44.59519908723293
 20
86.72797994208554
 30
0.0
 11
-44.62163157517482
 21
86.75122714013533
 31
0.0
  0
LINE
  5
1B0
330
1F
100
AcDbEntity
  8
0
100
AcDbLine
 10
-73.9581000309509
 20
53.47173748395951
 30
0.0
 11
-75.79757095426194
 21
48.99410208582773
 31
0.0
  0
LINE
  5
1B1
330
1F
100
AcDbEntity
  8
0
100
AcDbLine
 10
-34.63387397450762
 20
73.50717947960682
 30
0.0
 11
-19.8384177784628
 21
53.16702729673512
 31
0.0
  0
LINE
  5
1B2
330
1F
100
AcDbEntity
  8
0
100
AcDbLine
 10
-45.40029441278615
 20
64.21177565573839
 30
0.0
 11
-42.02258484608883
 21
67.54646386036076
 31
0.0
  0
LINE
  5
1B3
330
1F
100
AcDbEntity
  8
0
100
AcDbLine
 10
-48.54669116661295
 20
60.66079114666442
 30
0.0
 11
-45.40029441278615
 21
64.21177565573839
 31
0.0
  0
LINE
  5
1B4
330
1F
100
AcDbEntity
  8
0
100
AcDbLine
 10
-54.09140688710806
 20
52.97540230914382
 30
0.0
 11
-51.4479539349383
 21
56.9096600212331
 31
0.0
  0
LINE
  5
1B5
330
1F
100
AcDbEntity
  8
0
100
AcDbLine
 10
-56.46557312941623
 20
48.8758249164467
 30
0.0
 11
-54.09140688710806
 21
52.97540230914382
 31
0.0
  0
LINE
  5
1B6
330
1F
100
AcDbEntity
  8
0
100
AcDbLine
 10
-60.3664093302441
 20
40.25535134087449
 30
0.0
 11
-58.56022191543297
 21
44.6294350908014
 31
0.0
  0
LINE
  5
1B7
330
1F
100
AcDbEntity
  8
0
100
AcDbLine
 10
-38.84869767184158
 20
25.04313894760385
 30
0.0
 11
-38.04194740514492
 21
28.08862158422596
 31
0.0
  0
LINE
  5
1B8
330
1F
100
AcDbEntity
  8
0
100
AcDbLine
 10
-38.04194740514492
 20
28.08862158422596
 30
0.0
 11
-37.03266132354539
 21
31.07446780085467
 31
0.0
  0
LINE
  5
1B9
330
1F
100
AcDbEntity
  8
0
100
AcDbLine
 10
-37.03266132354539
 20
31.07446780085467
 30
0.0
 11
-35.82518005049249
 21
33.98719367624846
 31
0.0
  0
LINE
  5
1BA
330
1F
100
AcDbEntity
  8
0
100
AcDbLine
 10
-35.82518005049249
 20
33.98719367624846
 30
0.0
 11
-34.42474956570213
 21
36.81362027311979
 31
0.0
  0
LINE
  5
1BB
330
1F
100
AcDbEntity
  8
0
100
AcDbLine
 10
-34.42474956570213
 20
36.81362027311979
 30
0.0
 11
-34.42232784822377
 21
36.81762430393389
 31
0.0
  0
LINE
  5
1BC
330
1F
100
AcDbEntity
  8
0
100
AcDbLine
 10
-34.42232784822377
 20
36.81762430393389
 30
0.0
 11
-32.83750053975556
 21
39.54093529472993
 31
0.0
  0
LINE
  5
1BD
330
1F
100
AcDbEntity
  8
0
100
AcDbLine
 10
-32.83750053975556
 20
39.54093529472993
 30
0.0
 11
-31.07042332527172
 21
42.15675345601105
 31
0.0
  0
LINE
  5
1BE
330
1F
100
AcDbEntity
  8
0
100
AcDbLine
 10
-31.07042332527172
 20
42.15675345601105
 30
0.0
 11
-29.13133867151234
 21
44.64917524469782
 31
0.0
  0
LINE
  5
1BF
330
1F
100
AcDbEntity
  8
0
100
AcDbLine
 10
-29.13133867151234
 20
44.64917524469782
 30
0.0
 11
-27.02886425608498
 21
47.00684374940047
 31
0.0
  0
LINE
  5
1C0
330
1F
100
AcDbEntity
  8
0
100
AcDbLine
 10
-24.77237715453391
 20
49.21899923551261
 30
0.0
 11
-22.3719723957969
 21
51.27553115642747
 31
0.0
  0
LINE
  5
1C1
330
1F
100
AcDbEntity
  8
0
100
AcDbLine
 10
-28.26381061978762
 20
44.73427492776047
 30
0.0
 11
-26.22374725684952
 21
47.02173603137712
 31
0.0
  0
LINE
  5
1C2
330
1F
100
AcDbEntity
  8
0
100
AcDbLine
 10
-71.82451394139308
 20
57.81661071869691
 30
0.0
 11
-73.9581000309509
 21
53.47173748395951
 31
0.0
  0
LINE
  5
1C3
330
1F
100
AcDbEntity
  8
0
100
AcDbLine
 10
-38.27750768683426
 20
22.71094854666093
 30
0.0
 11
-37.694183219599
 21
25.71071908018396
 31
0.0
  0
LINE
  5
1C4
330
1F
100
AcDbEntity
  8
0
100
AcDbLine
 10
-49.52596814709437
 20
83.04475379411049
 30
0.0
 11
-44.62163157517482
 21
86.75122714013533
 31
0.0
  0
LINE
  5
1C5
330
1F
100
AcDbEntity
  8
0
100
AcDbLine
 10
-49.52596814709437
 20
83.04475379411049
 30
0.0
 11
-53.41154680496702
 21
80.10821110008979
 31
0.0
  0
LINE
  5
1C6
330
1F
100
AcDbEntity
  8
0
100
AcDbLine
 10
-53.41154680496702
 20
80.10821110008979
 30
0.0
 11
-57.08765427256398
 21
76.9246987610857
 31
0.0
  0
LINE
  5
1C7
330
1F
100
AcDbEntity
  8
0
100
AcDbLine
 10
-57.08765427256398
 20
76.9246987610857
 30
0.0
 11
-60.53892235982382
 21
73.50796926956374
 31
0.0
  0
LINE
  5
1C8
330
1F
100
AcDbEntity
  8
0
100
AcDbLine
 10
-63.75098429955654
 20
69.87275146503269
 30
0.0
 11
-66.71053528385575
 21
66.03468076066288
 31
0.0
  0
LINE
  5
1C9
330
1F
100
AcDbEntity
  8
0
100
AcDbLine
 10
-66.71053528385575
 20
66.03468076066288
 30
0.0
 11
-69.40538658602777
 21
62.0102256088752
 31
0.0
  0
LINE
  5
1CA
330
1F
100
AcDbEntity
  8
0
100
AcDbLine
 10
-69.40538658602777
 20
62.0102256088752
 30
0.0
 11
-71.82451394139308
 21
57.81661071869691
 31
0.0
  0
LINE
  5
1CB
330
1F
100
AcDbEntity
  8
0
100
AcDbLine
 10
-75.79757095426194
 20
48.99410208582773
 30
0.0
 11
-77.33562661944045
 21
44.4027117334198
 31
0.0
  0
LINE
  5
1CC
330
1F
100
AcDbEntity
  8
0
100
AcDbLine
 10
-77.33562661944045
 20
44.4027117334198
 30
0.0
 11
-78.56626501840712
 21
39.71699950253377
 31
0.0
  0
LINE
  5
1CD
330
1F
100
AcDbEntity
  8
0
100
AcDbLine
 10
-78.56626501840712
 20
39.71699950253377
 30
0.0
 11
-79.48479930906748
 21
34.95673851210016
 31
0.0
  0
LINE
  5
1CE
330
1F
100
AcDbEntity
  8
0
100
AcDbLine
 10
-79.48479930906748
 20
34.95673851210016
 30
0.0
 11
-80.6419720141385
 21
28.95974510297671
 31
0.0
  0
LINE
  5
1CF
330
1F
100
AcDbEntity
  8
0
100
AcDbLine
 10
-34.75951140847435
 20
34.38935266325002
 30
0.0
 11
-33.40043262254906
 21
37.13179841553428
 31
0.0
  0
LINE
  5
1D0
330
1F
100
AcDbEntity
  8
0
100
AcDbLine
 10
-36.91104374975833
 20
28.6658813700504
 30
0.0
 11
-35.93141375874871
 21
31.56311924253297
 31
0.0
  0
LINE
  5
1D1
330
1F
100
AcDbEntity
  8
0
100
AcDbLine
 10
-30.14539308666499
 20
42.31603524956105
 30
0.0
 11
-28.26381061978762
 21
44.73427492776047
 31
0.0
  0
LINE
  5
1D2
330
1F
100
AcDbEntity
  8
0
100
AcDbLine
 10
-35.93141375874871
 20
31.56311924253297
 30
0.0
 11
-34.75951140847435
 21
34.38935266325002
 31
0.0
  0
LINE
  5
1D3
330
1F
100
AcDbEntity
  8
0
100
AcDbLine
 10
-33.39808253040455
 20
37.13568344002579
 30
0.0
 11
-31.86013092624673
 21
39.77802982949034
 31
0.0
  0
LINE
  5
1D4
330
1F
100
AcDbEntity
  8
0
100
AcDbLine
 10
-24.0343024884019
 20
49.16798545799463
 30
0.0
 11
-21.7052713305056
 21
51.16322015721444
 31
0.0
  0
LINE
  5
1D5
330
1F
100
AcDbEntity
  8
0
100
AcDbLine
 10
-37.694183219599
 20
25.71071908018396
 30
0.0
 11
-36.91104374975833
 21
28.6658813700504
 31
0.0
  0
LINE
  5
1D6
330
1F
100
AcDbEntity
  8
0
100
AcDbLine
 10
-33.40043262254906
 20
37.13179841553428
 30
0.0
 11
-33.39808253040455
 21
37.13568344002579
 31
0.0
  0
LINE
  5
1D7
330
1F
100
AcDbEntity
  8
0
100
AcDbLine
 10
-19.2659254878656
 20
53.02419628136695
 30
0.0
 11
-19.24710048326481
 21
52.99831466749555
 31
0.0
  0
LINE
  5
1D8
330
1F
100
AcDbEntity
  8
0
100
AcDbLine
 10
-31.86013092624673
 20
39.77802982949034
 30
0.0
 11
-30.14539308666499
 21
42.31603524956105
 31
0.0
  0
LINE
  5
1D9
330
1F
100
AcDbEntity
  8
0
100
AcDbLine
 10
-63.97827222831735
 20
26.59865410217942
 30
0.0
 11
-63.53460962159583
 21
28.88363956777363
 31
0.0
  0
LINE
  5
1DA
330
1F
100
AcDbEntity
  8
0
100
AcDbLine
 10
-36.53146575754884
 20
72.07819635682331
 30
0.0
 11
-34.63387397450762
 21
73.50717947960682
 31
0.0
  0
LINE
  5
1DB
330
1F
100
AcDbEntity
  8
0
100
AcDbLine
 10
-63.53460962159583
 20
28.88363956777363
 30
0.0
 11
-62.48053468091616
 21
33.48757928934153
 31
0.0
  0
LINE
  5
1DC
330
1F
100
AcDbEntity
  8
0
100
AcDbLine
 10
-62.48053468091616
 20
33.48757928934153
 30
0.0
 11
-57.51313950088382
 21
46.75213945128224
 31
0.0
  0
LINE
  5
1DD
330
1F
100
AcDbEntity
  8
0
100
AcDbLine
 10
-36.53146575754884
 20
72.07819635682331
 30
0.0
 11
-40.22582970395419
 21
69.0977987344116
 31
0.0
  0
LINE
  5
1DE
330
1F
100
AcDbEntity
  8
0
100
AcDbLine
 10
-49.99761823398205
 20
58.7848432861125
 30
0.0
 11
-57.51313950088382
 21
46.75213945128224
 31
0.0
  0
LINE
  5
1DF
330
1F
100
AcDbEntity
  8
0
100
AcDbLine
 10
-40.22582970395419
 20
69.0977987344116
 30
0.0
 11
-49.99761823398205
 21
58.7848432861125
 31
0.0
  0
LINE
  5
1E0
330
1F
100
AcDbEntity
  8
0
100
AcDbLine
 10
40.52706556921702
 20
51.26871464318325
 30
0.0
 11
42.78833658644373
 21
49.20120868217754
 31
0.0
  0
LINE
  5
1E1
330
1F
100
AcDbEntity
  8
0
100
AcDbLine
 10
41.7719132806052
 20
51.38426738711001
 30
0.0
 11
44.10233789380445
 21
49.25324291281928
 31
0.0
  0
LINE
  5
1E2
330
1F
100
AcDbEntity
  8
0
100
AcDbLine
 10
67.30229508060444
 20
85.99390178531166
 30
0.0
 11
63.51083450548891
 21
89.03070810874225
 31
0.0
  0
LINE
  5
1E3
330
1F
100
AcDbEntity
  8
0
100
AcDbLine
 10
44.90505740822507
 20
46.98715931352483
 30
0.0
 11
46.8677715213577
 21
44.63667264022883
 31
0.0
  0
LINE
  5
1E4
330
1F
100
AcDbEntity
  8
0
100
AcDbLine
 10
46.28371944732125
 20
46.97120552494491
 30
0.0
 11
48.30631290809585
 21
44.54857812181283
 31
0.0
  0
LINE
  5
1E5
330
1F
100
AcDbEntity
  8
0
100
AcDbLine
 10
75.25221493920344
 20
65.77512803554018
 30
0.0
 11
81.2872837606288
 21
70.74374748923607
 31
0.0
  0
LINE
  5
1E6
330
1F
100
AcDbEntity
  8
0
100
AcDbLine
 10
46.57657830102989
 20
98.45190328363597
 30
0.0
 11
41.99041316657844
 21
100.0744857756542
 31
0.0
  0
LINE
  5
1E7
330
1F
100
AcDbEntity
  8
0
100
AcDbLine
 10
57.88682946696705
 20
70.7870878256799
 30
0.0
 11
61.38702955806651
 21
67.58476552222906
 31
0.0
  0
LINE
  5
1E8
330
1F
100
AcDbEntity
  8
0
100
AcDbLine
 10
54.17890094667661
 20
73.74943949970384
 30
0.0
 11
57.88682946696705
 21
70.7870878256799
 31
0.0
  0
LINE
  5
1E9
330
1F
100
AcDbEntity
  8
0
100
AcDbLine
 10
46.20662626019555
 20
78.9011854416812
 30
0.0
 11
50.27970926654532
 21
76.45827496906949
 31
0.0
  0
LINE
  5
1EA
330
1F
100
AcDbEntity
  8
0
100
AcDbLine
 10
41.97785072721366
 20
81.06696189713608
 30
0.0
 11
46.20662626019555
 21
78.9011854416812
 31
0.0
  0
LINE
  5
1EB
330
1F
100
AcDbEntity
  8
0
100
AcDbLine
 10
33.12964181020986
 20
84.52861276842029
 30
0.0
 11
37.61232409877295
 21
82.94565231814165
 31
0.0
  0
LINE
  5
1EC
330
1F
100
AcDbEntity
  8
0
100
AcDbLine
 10
16.00330365047115
 20
62.41705231357578
 30
0.0
 11
19.13876181496106
 21
61.98862378200529
 31
0.0
  0
LINE
  5
1ED
330
1F
100
AcDbEntity
  8
0
100
AcDbLine
 10
19.13876181496106
 20
61.98862378200529
 30
0.0
 11
22.23789734218416
 21
61.35073320004599
 31
0.0
  0
LINE
  5
1EE
330
1F
100
AcDbEntity
  8
0
100
AcDbLine
 10
22.23789734218416
 20
61.35073320004599
 30
0.0
 11
25.28665015987818
 21
60.5063195620475
 31
0.0
  0
LINE
  5
1EF
330
1F
100
AcDbEntity
  8
0
100
AcDbLine
 10
25.28665015987818
 20
60.5063195620475
 30
0.0
 11
28.27119896794731
 21
59.45927154035371
 31
0.0
  0
LINE
  5
1F0
330
1F
100
AcDbEntity
  8
0
100
AcDbLine
 10
28.27119896794731
 20
59.45927154035371
 30
0.0
 11
31.17802642975721
 21
58.21440804905507
 31
0.0
  0
LINE
  5
1F1
330
1F
100
AcDbEntity
  8
0
100
AcDbLine
 10
31.17802642975721
 20
58.21440804905507
 30
0.0
 11
31.18216773133648
 21
58.21220564056176
 31
0.0
  0
LINE
  5
1F2
330
1F
100
AcDbEntity
  8
0
100
AcDbLine
 10
31.18216773133648
 20
58.21220564056176
 30
0.0
 11
33.99398269512501
 21
56.7774542115143
 31
0.0
  0
LINE
  5
1F3
330
1F
100
AcDbEntity
  8
0
100
AcDbLine
 10
33.99398269512501
 20
56.7774542115143
 30
0.0
 11
36.70634691493844
 21
55.15501288521892
 31
0.0
  0
LINE
  5
1F4
330
1F
100
AcDbEntity
  8
0
100
AcDbLine
 10
36.70634691493844
 20
55.15501288521892
 30
0.0
 11
39.30288642321094
 21
53.3545319245336
 31
0.0
  0
LINE
  5
1F5
330
1F
100
AcDbEntity
  8
0
100
AcDbLine
 10
39.30288642321094
 20
53.3545319245336
 30
0.0
 11
41.7719132806052
 21
51.38426738711001
 31
0.0
  0
LINE
  5
1F6
330
1F
100
AcDbEntity
  8
0
100
AcDbLine
 10
44.10233789380445
 20
49.25324291281928
 30
0.0
 11
46.28371944732125
 21
46.97120552494491
 31
0.0
  0
LINE
  5
1F7
330
1F
100
AcDbEntity
  8
0
100
AcDbLine
 10
38.13137483905005
 20
53.18022695751407
 30
0.0
 11
40.52706556921702
 21
51.26871464318325
 31
0.0
  0
LINE
  5
1F8
330
1F
100
AcDbEntity
  8
0
100
AcDbLine
 10
51.04030798392933
 20
96.52722045808613
 30
0.0
 11
46.57657830102989
 21
98.45190328363597
 31
0.0
  0
LINE
  5
1F9
330
1F
100
AcDbEntity
  8
0
100
AcDbLine
 10
15.52583286645213
 20
61.97219348380334
 30
0.0
 11
18.56776802593002
 21
61.55656695431101
 31
0.0
  0
LINE
  5
1FA
330
1F
100
AcDbEntity
  8
0
100
AcDbLine
 10
15.52583286645213
 20
61.97219348380334
 30
0.0
 11
16.00330365047115
 21
62.41705231357578
 31
0.0
  0
LINE
  5
1FB
330
1F
100
AcDbEntity
  8
0
100
AcDbLine
 10
20.60423371434942
 20
96.12367464091349
 30
0.0
 11
21.59537446476365
 21
103.9218868593841
 31
0.0
  0
LINE
  5
1FC
330
1F
100
AcDbEntity
  8
0
100
AcDbLine
 10
77.35839124656448
 20
75.45318478513407
 30
0.0
 11
81.2872837606288
 21
70.74374748923607
 31
0.0
  0
LINE
  5
1FD
330
1F
100
AcDbEntity
  8
0
100
AcDbLine
 10
77.35839124656448
 20
75.45318478513407
 30
0.0
 11
74.24053383244915
 21
79.1904603498809
 31
0.0
  0
LINE
  5
1FE
330
1F
100
AcDbEntity
  8
0
100
AcDbLine
 10
74.24053383244915
 20
79.1904603498809
 30
0.0
 11
70.88384874366766
 21
82.70908866356683
 31
0.0
  0
LINE
  5
1FF
330
1F
100
AcDbEntity
  8
0
100
AcDbLine
 10
70.88384874366766
 20
82.70908866356683
 30
0.0
 11
67.30229508060444
 21
85.99390178531166
 31
0.0
  0
LINE
  5
200
330
1F
100
AcDbEntity
  8
0
100
AcDbLine
 10
63.51083450548891
 20
89.03070810874225
 30
0.0
 11
59.52536822566154
 21
91.80636106158808
 31
0.0
  0
LINE
  5
201
330
1F
100
AcDbEntity
  8
0
100
AcDbLine
 10
59.52536822566154
 20
91.80636106158808
 30
0.0
 11
55.36266892679306
 21
94.30882238490273
 31
0.0
  0
LINE
  5
202
330
1F
100
AcDbEntity
  8
0
100
AcDbLine
 10
55.36266892679306
 20
94.30882238490273
 30
0.0
 11
51.04030798392933
 21
96.52722045808613
 31
0.0
  0
LINE
  5
203
330
1F
100
AcDbEntity
  8
0
100
AcDbLine
 10
41.99041316657844
 20
100.0744857756542
 30
0.0
 11
37.3013015470749
 21
101.3878910302539
 31
0.0
  0
LINE
  5
204
330
1F
100
AcDbEntity
  8
0
100
AcDbLine
 10
37.3013015470749
 20
101.3878910302539
 30
0.0
 11
32.52920027122958
 21
102.3863852937739
 31
0.0
  0
LINE
  5
205
330
1F
100
AcDbEntity
  8
0
100
AcDbLine
 10
32.52920027122958
 20
102.3863852937739
 30
0.0
 11
27.69444393674229
 21
103.065605300473
 31
0.0
  0
LINE
  5
206
330
1F
100
AcDbEntity
  8
0
100
AcDbLine
 10
27.42796910344947
 20
59.10277152552825
 30
0.0
 11
30.2482182315639
 21
57.89507982416727
 31
0.0
  0
LINE
  5
207
330
1F
100
AcDbEntity
  8
0
100
AcDbLine
 10
21.57448725911191
 20
60.93773523432429
 30
0.0
 11
24.53235557385888
 21
60.1185470078109
 31
0.0
  0
LINE
  5
208
330
1F
100
AcDbEntity
  8
0
100
AcDbLine
 10
35.61202324761945
 20
54.9269972003528
 30
0.0
 11
38.13137483905005
 21
53.18022695751407
 31
0.0
  0
LINE
  5
209
330
1F
100
AcDbEntity
  8
0
100
AcDbLine
 10
24.53235557385888
 20
60.1185470078109
 30
0.0
 11
27.42796910344947
 21
59.10277152552825
 31
0.0
  0
LINE
  5
20A
330
1F
100
AcDbEntity
  8
0
100
AcDbLine
 10
30.25223624493248
 20
57.89294317124906
 30
0.0
 11
32.98034911089609
 21
56.50102150230887
 31
0.0
  0
LINE
  5
20B
330
1F
100
AcDbEntity
  8
0
100
AcDbLine
 10
42.78833658644373
 20
49.20120868217754
 30
0.0
 11
44.90505740822507
 21
46.98715931352483
 31
0.0
  0
LINE
  5
20C
330
1F
100
AcDbEntity
  8
0
100
AcDbLine
 10
15.52583286645213
 20
61.97219348380334
 30
0.0
 11
15.52860484422503
 21
61.99401694122542
 31
0.0
  0
LINE
  5
20D
330
1F
100
AcDbEntity
  8
0
100
AcDbLine
 10
19.88377983038708
 20
91.72185108333828
 30
0.0
 11
19.53172320060946
 21
89.57099774988819
 31
0.0
  0
LINE
  5
20E
330
1F
100
AcDbEntity
  8
0
100
AcDbLine
 10
19.53065895070089
 20
89.5644957140442
 30
0.0
 11
19.1824177985898
 21
87.43683885818814
 31
0.0
  0
LINE
  5
20F
330
1F
100
AcDbEntity
  8
0
100
AcDbLine
 10
18.56776802593002
 20
61.55656695431101
 30
0.0
 11
21.57448725911191
 21
60.93773523432429
 31
0.0
  0
LINE
  5
210
330
1F
100
AcDbEntity
  8
0
100
AcDbLine
 10
30.2482182315639
 20
57.89507982416727
 30
0.0
 11
30.25223624493248
 21
57.89294317124906
 31
0.0
  0
LINE
  5
211
330
1F
100
AcDbEntity
  8
0
100
AcDbLine
 10
32.98034911089609
 20
56.50102150230887
 30
0.0
 11
35.61202324761945
 21
54.9269972003528
 31
0.0
  0
LINE
  5
212
330
1F
100
AcDbEntity
  8
0
100
AcDbLine
 10
66.18398747045251
 20
62.33801422145429
 30
0.0
 11
67.70335746509829
 21
60.51966047871995
 31
0.0
  0
LINE
  5
213
330
1F
100
AcDbEntity
  8
0
100
AcDbLine
 10
26.22205494155923
 20
86.29403493051171
 30
0.0
 11
39.79530967979925
 21
82.00621145582977
 31
0.0
  0
LINE
  5
214
330
1F
100
AcDbEntity
  8
0
100
AcDbLine
 10
66.18398747045251
 20
62.33801422145429
 30
0.0
 11
63.0258282092916
 21
65.87060711178897
 31
0.0
  0
LINE
  5
215
330
1F
100
AcDbEntity
  8
0
100
AcDbLine
 10
52.22959156730528
 20
75.10365822521942
 30
0.0
 11
39.79530967979925
 21
82.00621145582977
 31
0.0
  0
LINE
  5
216
330
1F
100
AcDbEntity
  8
0
100
AcDbLine
 10
63.0258282092916
 20
65.87060711178897
 30
0.0
 11
52.22959156730528
 21
75.10365822521942
 31
0.0
  0
LINE
  5
217
330
1F
100
AcDbEntity
  8
0
100
AcDbLine
 10
-20.16526315571245
 20
27.98501049376222
 30
0.0
 11
-23.95072682224714
 21
19.76742821978898
 31
0.0
  0
LINE
  5
218
330
1F
100
AcDbEntity
  8
0
100
AcDbLine
 10
-25.47399506323422
 20
10.86162846319055
 30
0.0
 11
-24.6376528344859
 21
1.876761181343259
 31
0.0
  0
LINE
  5
219
330
1F
100
AcDbEntity
  8
0
100
AcDbLine
 10
7.688017104103428
 20
-24.97673776628331
 30
0.0
 11
16.66055724866528
 21
-24.17200904978651
 31
0.0
  0
LINE
  5
21A
330
1F
100
AcDbEntity
  8
0
100
AcDbLine
 10
32.5120687748635
 20
-15.91774220159038
 30
0.0
 11
38.31822667457364
 21
-9.020075783956186
 31
0.0
  0
LINE
  5
21B
330
1F
100
AcDbEntity
  8
0
100
AcDbLine
 10
42.14745750998576
 20
-0.8540723873161472
 30
0.0
 11
43.73448035592202
 21
8.028933968318574
 31
0.0
  0
LINE
  5
21C
330
1F
100
AcDbEntity
  8
0
100
AcDbLine
 10
39.88418923422184
 20
25.52253750843842
 30
0.0
 11
34.69738639621647
 21
32.93546659852259
 31
0.0
  0
LINE
  5
21D
330
1F
100
AcDbEntity
  8
0
100
AcDbLine
 10
-23.95072682224714
 20
19.76742821978898
 30
0.0
 11
-25.47399506323422
 21
10.86162846319055
 31
0.0
  0
LINE
  5
21E
330
1F
100
AcDbEntity
  8
0
100
AcDbLine
 10
-21.50534160422653
 20
-6.576125565621293
 30
0.0
 11
-16.29564575029038
 21
-13.92537611790665
 31
0.0
  0
LINE
  5
21F
330
1F
100
AcDbEntity
  8
0
100
AcDbLine
 10
-9.365837374229752
 20
-19.67649956799962
 30
0.0
 11
-1.186943492051112
 21
-23.44417169991785
 31
0.0
  0
LINE
  5
220
330
1F
100
AcDbEntity
  8
0
100
AcDbLine
 10
43.73448035592202
 20
8.028933968318574
 30
0.0
 11
42.96479743731675
 21
17.02590058231662
 31
0.0
  0
LINE
  5
221
330
1F
100
AcDbEntity
  8
0
100
AcDbLine
 10
-13.94362447161284
 20
35.32280125290068
 30
0.0
 11
-14.37115755513789
 21
34.94922108338191
 31
0.0
  0
LINE
  5
222
330
1F
100
AcDbEntity
  8
0
100
AcDbLine
 10
34.69738639621647
 20
32.93546659852259
 30
0.0
 11
27.75552659569142
 21
38.75313454891931
 31
0.0
  0
LINE
  5
223
330
1F
100
AcDbEntity
  8
0
100
AcDbLine
 10
-14.37115755513789
 20
34.94922108338191
 30
0.0
 11
-20.16526315571245
 21
27.98501049376222
 31
0.0
  0
LINE
  5
224
330
1F
100
AcDbEntity
  8
0
100
AcDbLine
 10
25.12582548312662
 20
-21.08363069448058
 30
0.0
 11
32.5120687748635
 21
-15.91774220159038
 31
0.0
  0
LINE
  5
225
330
1F
100
AcDbEntity
  8
0
100
AcDbLine
 10
10.59414977549383
 20
44.12774653755934
 30
0.0
 11
1.554949446117728
 21
43.31091816059342
 31
0.0
  0
LINE
  5
226
330
1F
100
AcDbEntity
  8
0
100
AcDbLine
 10
-1.186943492051112
 20
-23.44417169991785
 30
0.0
 11
7.688017104103428
 21
-24.97673776628331
 31
0.0
  0
LINE
  5
227
330
1F
100
AcDbEntity
  8
0
100
AcDbLine
 10
-24.6376528344859
 20
1.876761181343259
 30
0.0
 11
-21.50534160422653
 21
-6.576125565621293
 31
0.0
  0
LINE
  5
228
330
1F
100
AcDbEntity
  8
0
100
AcDbLine
 10
19.53286569795207
 20
42.57238647835969
 30
0.0
 11
10.59414977549383
 21
44.12774653755934
 31
0.0
  0
LINE
  5
229
330
1F
100
AcDbEntity
  8
0
100
AcDbLine
 10
16.66055724866528
 20
-24.17200904978651
 30
0.0
 11
25.12582548312662
 21
-21.08363069448058
 31
0.0
  0
LINE
  5
22A
330
1F
100
AcDbEntity
  8
0
100
AcDbLine
 10
42.96479743731675
 20
17.02590058231662
 30
0.0
 11
39.88418923422184
 21
25.52253750843842
 31
0.0
  0
LINE
  5
22B
330
1F
100
AcDbEntity
  8
0
100
AcDbLine
 10
27.75552659569142
 20
38.75313454891931
 30
0.0
 11
19.53286569795207
 21
42.57238647835969
 31
0.0
  0
LINE
  5
22C
330
1F
100
AcDbEntity
  8
0
100
AcDbLine
 10
1.554949446117728
 20
43.31091816059342
 30
0.0
 11
-6.962021968824741
 21
40.17878870594139
 31
0.0
  0
LINE
  5
22D
330
1F
100
AcDbEntity
  8
0
100
AcDbLine
 10
18.95130668567736
 20
42.71930047408593
 30
0.0
 11
19.53286569795207
 21
42.57238647835969
 31
0.0
  0
LINE
  5
22E
330
1F
100
AcDbEntity
  8
0
100
AcDbLine
 10
38.31822667457364
 20
-9.020075783956186
 30
0.0
 11
42.14745750998576
 21
-0.8540723873161472
 31
0.0
  0
LINE
  5
22F
330
1F
100
AcDbEntity
  8
0
100
AcDbLine
 10
-16.29564575029038
 20
-13.92537611790665
 30
0.0
 11
-9.365837374229752
 21
-19.67649956799962
 31
0.0
  0
LINE
  5
230
330
1F
100
AcDbEntity
  8
0
100
AcDbLine
 10
-6.962021968824741
 20
40.17878870594139
 30
0.0
 11
-14.37115755513789
 21
34.94922108338191
 31
0.0
  0
LINE
  5
231
330
1F
100
AcDbEntity
  8
0
100
AcDbLine
 10
10.27867453639285
 20
44.22836876898511
 30
0.0
 11
1.50864976735518
 21
43.4358533331099
 31
0.0
  0
LINE
  5
232
330
1F
100
AcDbEntity
  8
0
100
AcDbLine
 10
18.95130668567736
 20
42.71930047408593
 30
0.0
 11
10.27867453639285
 21
44.22836876898511
 31
0.0
  0
LINE
  5
233
330
1F
100
AcDbEntity
  8
0
100
AcDbLine
 10
1.50864976735518
 20
43.4358533331099
 30
0.0
 11
-6.754791600694097
 21
40.39691298355962
 31
0.0
  0
LINE
  5
234
330
1F
100
AcDbEntity
  8
0
100
AcDbLine
 10
-6.754791600694097
 20
40.39691298355962
 30
0.0
 11
-13.94362447161284
 21
35.32280125290068
 31
0.0
  0
LINE
  5
235
330
1F
100
AcDbEntity
  8
0
100
AcDbLine
 10
-174.1196827302267
 20
33.10910963824541
 30
0.0
 11
-178.344066001465
 21
31.54579366185579
 31
0.0
  0
LINE
  5
236
330
1F
100
AcDbEntity
  8
0
100
AcDbLine
 10
-174.8505587652047
 20
-0.3160720107837581
 30
0.0
 11
-170.3867459116328
 21
-1.085830918314825
 31
0.0
  0
LINE
  5
237
330
1F
100
AcDbEntity
  8
0
100
AcDbLine
 10
-186.6482600243339
 20
21.34702860091754
 30
0.0
 11
-187.3307902129039
 21
16.890344077517
 31
0.0
  0
LINE
  5
238
330
1F
100
AcDbEntity
  8
0
100
AcDbLine
 10
-154.7867792655983
 20
24.22812841716755
 30
0.0
 11
-157.4578191410326
 21
27.93176631286544
 31
0.0
  0
LINE
  5
239
330
1F
100
AcDbEntity
  8
0
100
AcDbLine
 10
-178.9856876334877
 20
1.576498766697781
 30
0.0
 11
-174.8505587652047
 21
-0.3160720107837581
 31
0.0
  0
LINE
  5
23A
330
1F
100
AcDbEntity
  8
0
100
AcDbLine
 10
-181.9971480640538
 20
28.93477855511543
 30
0.0
 11
-184.8294381061958
 21
25.45560060637849
 31
0.0
  0
LINE
  5
23B
330
1F
100
AcDbEntity
  8
0
100
AcDbLine
 10
-178.344066001465
 20
31.54579366185579
 30
0.0
 11
-181.9971480640538
 21
28.93477855511543
 31
0.0
  0
LINE
  5
23C
330
1F
100
AcDbEntity
  8
0
100
AcDbLine
 10
-165.8968500262238
 20
-0.680887328145128
 30
0.0
 11
-161.6851946815959
 21
0.8714641037952038
 31
0.0
  0
LINE
  5
23D
330
1F
100
AcDbEntity
  8
0
100
AcDbLine
 10
-158.0375286269108
 20
3.466523231745302
 30
0.0
 11
-155.201891475844
 21
6.929029172564759
 31
0.0
  0
LINE
  5
23E
330
1F
100
AcDbEntity
  8
0
100
AcDbLine
 10
-186.8321241807792
 20
12.38982756050268
 30
0.0
 11
-185.1879047163151
 21
8.151872698405867
 31
0.0
  0
LINE
  5
23F
330
1F
100
AcDbEntity
  8
0
100
AcDbLine
 10
-153.1552877192881
 20
19.97920906834847
 30
0.0
 11
-154.7867792655983
 21
24.22812841716755
 31
0.0
  0
LINE
  5
240
330
1F
100
AcDbEntity
  8
0
100
AcDbLine
 10
-170.3867459116328
 20
-1.085830918314825
 30
0.0
 11
-165.8968500262238
 21
-0.680887328145128
 31
0.0
  0
LINE
  5
241
330
1F
100
AcDbEntity
  8
0
100
AcDbLine
 10
-165.1332695596017
 20
32.7416219478369
 30
0.0
 11
-169.6131574402523
 21
33.51708837656326
 31
0.0
  0
LINE
  5
242
330
1F
100
AcDbEntity
  8
0
100
AcDbLine
 10
-161.6851946815959
 20
0.8714641037952038
 30
0.0
 11
-158.0375286269108
 21
3.466523231745302
 31
0.0
  0
LINE
  5
243
330
1F
100
AcDbEntity
  8
0
100
AcDbLine
 10
-187.3307902129039
 20
16.890344077517
 30
0.0
 11
-186.8321241807792
 21
12.38982756050268
 31
0.0
  0
LINE
  5
244
330
1F
100
AcDbEntity
  8
0
100
AcDbLine
 10
-152.6732510373134
 20
15.47565742380493
 30
0.0
 11
-153.1552877192881
 21
19.97920906834847
 31
0.0
  0
LINE
  5
245
330
1F
100
AcDbEntity
  8
0
100
AcDbLine
 10
-160.9801131591244
 20
0.7472661765570078
 30
0.0
 11
-165.8968500262238
 21
-0.680887328145128
 31
0.0
  0
LINE
  5
246
330
1F
100
AcDbEntity
  8
0
100
AcDbLine
 10
-155.201891475844
 20
6.929029172564759
 30
0.0
 11
-153.3718562070033
 21
11.02468038449161
 31
0.0
  0
LINE
  5
247
330
1F
100
AcDbEntity
  8
0
100
AcDbLine
 10
-182.5114487870181
 20
4.464190744390166
 30
0.0
 11
-178.9856876334877
 21
1.576498766697781
 31
0.0
  0
LINE
  5
248
330
1F
100
AcDbEntity
  8
0
100
AcDbLine
 10
-164.5680344610161
 20
33.93321060032559
 30
0.0
 11
-169.6131574402523
 21
33.51708837656326
 31
0.0
  0
LINE
  5
249
330
1F
100
AcDbEntity
  8
0
100
AcDbLine
 10
-185.1879047163151
 20
8.151872698405867
 30
0.0
 11
-182.5114487870181
 21
4.464190744390166
 31
0.0
  0
LINE
  5
24A
330
1F
100
AcDbEntity
  8
0
100
AcDbLine
 10
-169.6131574402523
 20
33.51708837656326
 30
0.0
 11
-174.1196827302267
 21
33.10910963824541
 31
0.0
  0
LINE
  5
24B
330
1F
100
AcDbEntity
  8
0
100
AcDbLine
 10
-160.9869273490724
 20
30.83613031909423
 30
0.0
 11
-165.1332695596017
 21
32.7416219478369
 31
0.0
  0
LINE
  5
24C
330
1F
100
AcDbEntity
  8
0
100
AcDbLine
 10
-153.3718562070033
 20
11.02468038449161
 30
0.0
 11
-152.6732510373134
 21
15.47565742380493
 31
0.0
  0
LINE
  5
24D
330
1F
100
AcDbEntity
  8
0
100
AcDbLine
 10
-157.4578191410326
 20
27.93176631286544
 30
0.0
 11
-160.9869273490724
 21
30.83613031909423
 31
0.0
  0
LINE
  5
24E
330
1F
100
AcDbEntity
  8
0
100
AcDbLine
 10
-184.8294381061958
 20
25.45560060637849
 30
0.0
 11
-186.6482600243339
 21
21.34702860091754
 31
0.0
  0
LINE
  5
24F
330
1F
100
AcDbEntity
  8
0
100
AcDbLine
 10
-160.9801131591244
 20
0.7472661765570078
 30
0.0
 11
-156.8924904039229
 21
2.253837817830201
 31
0.0
  0
LINE
  5
250
330
1F
100
AcDbEntity
  8
0
100
AcDbLine
 10
-153.3516590761285
 20
4.772333207295636
 30
0.0
 11
-150.5984091569089
 21
8.132616567219417
 31
0.0
  0
LINE
  5
251
330
1F
100
AcDbEntity
  8
0
100
AcDbLine
 10
-148.8206791127809
 20
12.10725564326104
 30
0.0
 11
-148.1406669518508
 21
16.42660224166814
 31
0.0
  0
LINE
  5
252
330
1F
100
AcDbEntity
  8
0
100
AcDbLine
 10
-156.1997479666568
 20
31.33185675322181
 30
0.0
 11
-160.2218030502419
 21
33.18077431653047
 31
0.0
  0
LINE
  5
253
330
1F
100
AcDbEntity
  8
0
100
AcDbLine
 10
-152.7770212248498
 20
28.51367940475972
 30
0.0
 11
-156.1997479666568
 21
31.33185675322181
 31
0.0
  0
LINE
  5
254
330
1F
100
AcDbEntity
  8
0
100
AcDbLine
 10
-148.1406669518508
 20
16.42660224166814
 30
0.0
 11
-148.6062233553122
 21
20.79684177683195
 31
0.0
  0
LINE
  5
255
330
1F
100
AcDbEntity
  8
0
100
AcDbLine
 10
-150.1871872605261
 20
24.91986954569827
 30
0.0
 11
-152.7770212248498
 21
28.51367940475972
 31
0.0
  0
LINE
  5
256
330
1F
100
AcDbEntity
  8
0
100
AcDbLine
 10
-156.8924904039229
 20
2.253837817830201
 30
0.0
 11
-153.3516590761285
 21
4.772333207295636
 31
0.0
  0
LINE
  5
257
330
1F
100
AcDbEntity
  8
0
100
AcDbLine
 10
-148.6062233553122
 20
20.79684177683195
 30
0.0
 11
-150.1871872605261
 21
24.91986954569827
 31
0.0
  0
LINE
  5
258
330
1F
100
AcDbEntity
  8
0
100
AcDbLine
 10
-150.5984091569089
 20
8.132616567219417
 30
0.0
 11
-148.8206791127809
 21
12.10725564326104
 31
0.0
  0
LINE
  5
259
330
1F
100
AcDbEntity
  8
0
100
AcDbLine
 10
-160.2218030502419
 20
33.18077431653047
 30
0.0
 11
-164.5680344610161
 21
33.93321060032559
 31
0.0
  0
LINE
  5
25A
330
1F
100
AcDbEntity
  8
0
100
AcDbLine
 10
115.0959468335999
 20
98.95162013407311
 30
0.0
 11
110.7916286540422
 21
97.36579019161756
 31
0.0
  0
LINE
  5
25B
330
1F
100
AcDbEntity
  8
0
100
AcDbLine
 10
113.2987847954981
 20
65.04591328456925
 30
0.0
 11
117.7700734941555
 21
64.26510909181223
 31
0.0
  0
LINE
  5
25C
330
1F
100
AcDbEntity
  8
0
100
AcDbLine
 10
102.1041997570142
 20
87.02024361511762
 30
0.0
 11
101.2753495392048
 21
82.49946991037406
 31
0.0
  0
LINE
  5
25D
330
1F
100
AcDbEntity
  8
0
100
AcDbLine
 10
134.2855135303032
 20
89.94279174694118
 30
0.0
 11
131.712946040056
 21
93.69973056866462
 31
0.0
  0
LINE
  5
25E
330
1F
100
AcDbEntity
  8
0
100
AcDbLine
 10
109.194162521865
 20
66.96564459286012
 30
0.0
 11
113.2987847954981
 21
65.04591328456925
 31
0.0
  0
LINE
  5
25F
330
1F
100
AcDbEntity
  8
0
100
AcDbLine
 10
107.0294675097705
 20
94.71718141216988
 30
0.0
 11
104.0664466707387
 21
91.18792669817623
 31
0.0
  0
LINE
  5
260
330
1F
100
AcDbEntity
  8
0
100
AcDbLine
 10
110.7916286540422
 20
97.36579019161756
 30
0.0
 11
107.0294675097705
 21
94.71718141216988
 31
0.0
  0
LINE
  5
261
330
1F
100
AcDbEntity
  8
0
100
AcDbLine
 10
122.3049230330541
 20
64.67586310809081
 30
0.0
 11
126.5959797204071
 21
66.25049122116494
 31
0.0
  0
LINE
  5
262
330
1F
100
AcDbEntity
  8
0
100
AcDbLine
 10
130.3521368055099
 20
68.88279871704601
 30
0.0
 11
133.3180197843454
 21
72.39502062313106
 31
0.0
  0
LINE
  5
263
330
1F
100
AcDbEntity
  8
0
100
AcDbLine
 10
101.6347668869964
 20
77.9342658646327
 30
0.0
 11
103.1562648503328
 21
73.6354267418749
 31
0.0
  0
LINE
  5
264
330
1F
100
AcDbEntity
  8
0
100
AcDbLine
 10
135.7937500120084
 20
85.63275085462605
 30
0.0
 11
134.2855135303032
 21
89.94279174694118
 31
0.0
  0
LINE
  5
265
330
1F
100
AcDbEntity
  8
0
100
AcDbLine
 10
117.7700734941555
 20
64.26510909181223
 30
0.0
 11
122.3049230330541
 21
64.67586310809081
 31
0.0
  0
LINE
  5
266
330
1F
100
AcDbEntity
  8
0
100
AcDbLine
 10
107.4739016948168
 20
95.87273042366036
 30
0.0
 11
110.7916286540422
 21
97.36579019161756
 31
0.0
  0
LINE
  5
267
330
1F
100
AcDbEntity
  8
0
100
AcDbLine
 10
124.1351742078345
 20
98.57883975140592
 30
0.0
 11
119.6477618877422
 21
99.3654749825143
 31
0.0
  0
LINE
  5
268
330
1F
100
AcDbEntity
  8
0
100
AcDbLine
 10
126.5959797204071
 20
66.25049122116494
 30
0.0
 11
130.3521368055099
 21
68.88279871704601
 31
0.0
  0
LINE
  5
269
330
1F
100
AcDbEntity
  8
0
100
AcDbLine
 10
101.2753495392048
 20
82.49946991037406
 30
0.0
 11
101.6347668869964
 21
77.9342658646327
 31
0.0
  0
LINE
  5
26A
330
1F
100
AcDbEntity
  8
0
100
AcDbLine
 10
136.1362019012164
 20
81.06444599809008
 30
0.0
 11
135.7937500120084
 21
85.63275085462605
 31
0.0
  0
LINE
  5
26B
330
1F
100
AcDbEntity
  8
0
100
AcDbLine
 10
118.6549935679239
 20
64.16348898634445
 30
0.0
 11
122.3049230330541
 21
64.67586310809081
 31
0.0
  0
LINE
  5
26C
330
1F
100
AcDbEntity
  8
0
100
AcDbLine
 10
133.3180197843454
 20
72.39502062313106
 30
0.0
 11
135.2912281080583
 21
76.54950329324174
 31
0.0
  0
LINE
  5
26D
330
1F
100
AcDbEntity
  8
0
100
AcDbLine
 10
105.7348364458351
 20
69.89478916526188
 30
0.0
 11
109.194162521865
 21
66.96564459286012
 31
0.0
  0
LINE
  5
26E
330
1F
100
AcDbEntity
  8
0
100
AcDbLine
 10
103.1562648503328
 20
73.6354267418749
 30
0.0
 11
105.7348364458351
 21
69.89478916526188
 31
0.0
  0
LINE
  5
26F
330
1F
100
AcDbEntity
  8
0
100
AcDbLine
 10
119.6477618877422
 20
99.3654749825143
 30
0.0
 11
115.0959468335999
 21
98.95162013407311
 31
0.0
  0
LINE
  5
270
330
1F
100
AcDbEntity
  8
0
100
AcDbLine
 10
128.2507578808824
 20
96.64590797034299
 30
0.0
 11
124.1351742078345
 21
98.57883975140592
 31
0.0
  0
LINE
  5
271
330
1F
100
AcDbEntity
  8
0
100
AcDbLine
 10
135.2912281080583
 20
76.54950329324174
 30
0.0
 11
136.1362019012164
 21
81.06444599809008
 31
0.0
  0
LINE
  5
272
330
1F
100
AcDbEntity
  8
0
100
AcDbLine
 10
131.712946040056
 20
93.69973056866462
 30
0.0
 11
128.2507578808824
 21
96.64590797034299
 31
0.0
  0
LINE
  5
273
330
1F
100
AcDbEntity
  8
0
100
AcDbLine
 10
104.0664466707387
 20
91.18792669817623
 30
0.0
 11
102.1041997570142
 21
87.02024361511762
 31
0.0
  0
LINE
  5
274
330
1F
100
AcDbEntity
  8
0
100
AcDbLine
 10
100.0748801222233
 20
72.85493746721748
 30
0.0
 11
102.5776707216297
 21
69.22629993793547
 31
0.0
  0
LINE
  5
275
330
1F
100
AcDbEntity
  8
0
100
AcDbLine
 10
109.9174924756328
 20
64.52247539644462
 30
0.0
 11
114.255629048035
 21
63.76501469210768
 31
0.0
  0
LINE
  5
276
330
1F
100
AcDbEntity
  8
0
100
AcDbLine
 10
100.9521308272933
 20
89.88071542804829
 30
0.0
 11
99.04994441787754
 21
85.83827310581499
 31
0.0
  0
LINE
  5
277
330
1F
100
AcDbEntity
  8
0
100
AcDbLine
 10
98.24732716533377
 20
81.45322721960214
 30
0.0
 11
98.59745714365866
 21
77.02495453163175
 31
0.0
  0
LINE
  5
278
330
1F
100
AcDbEntity
  8
0
100
AcDbLine
 10
114.255629048035
 20
63.76501469210768
 30
0.0
 11
118.6549935679239
 21
64.16348898634445
 31
0.0
  0
LINE
  5
279
330
1F
100
AcDbEntity
  8
0
100
AcDbLine
 10
107.4739016948168
 20
95.87273042366036
 30
0.0
 11
103.8252920980993
 21
93.30382905218563
 31
0.0
  0
LINE
  5
27A
330
1F
100
AcDbEntity
  8
0
100
AcDbLine
 10
105.9347095310957
 20
66.38479672461574
 30
0.0
 11
109.9174924756328
 21
64.52247539644462
 31
0.0
  0
LINE
  5
27B
330
1F
100
AcDbEntity
  8
0
100
AcDbLine
 10
102.5776707216297
 20
69.22629993793547
 30
0.0
 11
105.9347095310957
 21
66.38479672461574
 31
0.0
  0
LINE
  5
27C
330
1F
100
AcDbEntity
  8
0
100
AcDbLine
 10
103.8252920980993
 20
93.30382905218563
 30
0.0
 11
100.9521308272933
 21
89.88071542804829
 31
0.0
  0
LINE
  5
27D
330
1F
100
AcDbEntity
  8
0
100
AcDbLine
 10
98.59745714365866
 20
77.02495453163175
 30
0.0
 11
100.0748801222233
 21
72.85493746721748
 31
0.0
  0
LINE
  5
27E
330
1F
100
AcDbEntity
  8
0
100
AcDbLine
 10
99.04994441787754
 20
85.83827310581499
 30
0.0
 11
98.24732716533377
 21
81.45322721960214
 31
0.0
  0
LINE
  5
27F
330
1F
100
AcDbEntity
  8
0
100
AcDbLine
 10
15.50741924505081
 20
61.97425209937862
 30
0.0
 11
15.52860484422503
 21
61.99401694122542
 31
0.0
  0
LINE
  5
280
330
1F
100
AcDbEntity
  8
0
100
AcDbLine
 10
15.52860484422503
 20
61.99401694122542
 30
0.0
 11
15.98432385916181
 21
62.41917434096381
 31
0.0
  0
LINE
  5
281
330
1F
100
AcDbEntity
  8
0
100
AcDbLine
 10
20.61676709482029
 20
96.12099884786063
 30
0.0
 11
20.61698776016153
 21
96.12234733035693
 31
0.0
  0
LINE
  5
282
330
1F
100
AcDbEntity
  8
0
100
AcDbLine
 10
18.50654246127184
 20
82.11766632062121
 30
0.0
 11
15.98432385916181
 21
62.41917434096381
 31
0.0
  0
LINE
  5
283
330
1F
100
AcDbEntity
  8
0
100
AcDbLine
 10
14.4609123515364
 20
87.9796977219078
 30
0.0
 11
16.82429589509897
 21
87.70796580941091
 31
0.0
  0
LINE
  5
284
330
1F
100
AcDbEntity
  8
0
100
AcDbLine
 10
9.707994420568326
 20
88.20594254586005
 30
0.0
 11
12.08448250899538
 21
88.09281874759579
 31
0.0
  0
LINE
  5
285
330
1F
100
AcDbEntity
  8
0
100
AcDbLine
 10
12.08448250899538
 20
88.09281874759579
 30
0.0
 11
14.4609123515364
 21
87.9796977219078
 31
0.0
  0
LINE
  5
286
330
1F
100
AcDbEntity
  8
0
100
AcDbLine
 10
-4.493920386966293
 20
86.97835738886387
 30
0.0
 11
-2.142483469588004
 21
87.34122133785709
 31
0.0
  0
LINE
  5
287
330
1F
100
AcDbEntity
  8
0
100
AcDbLine
 10
-2.142483469588004
 20
87.34122133785709
 30
0.0
 11
0.2091383461020645
 21
87.70411381958701
 31
0.0
  0
LINE
  5
288
330
1F
100
AcDbEntity
  8
0
100
AcDbLine
 10
-18.16418665836765
 20
82.94617734245925
 30
0.0
 11
-15.93295292752695
 21
83.76996099092908
 31
0.0
  0
LINE
  5
289
330
1F
100
AcDbEntity
  8
0
100
AcDbLine
 10
-15.93295292752695
 20
83.76996099092908
 30
0.0
 11
-13.70132069927805
 21
84.5938917668129
 31
0.0
  0
LINE
  5
28A
330
1F
100
AcDbEntity
  8
0
100
AcDbLine
 10
-30.75073222055213
 20
76.27606878322072
 30
0.0
 11
-28.72966000662516
 21
77.5267074275413
 31
0.0
  0
LINE
  5
28B
330
1F
100
AcDbEntity
  8
0
100
AcDbLine
 10
-28.72966000662516
 20
77.5267074275413
 30
0.0
 11
-26.70803937029848
 21
78.77768543541407
 31
0.0
  0
LINE
  5
28C
330
1F
100
AcDbEntity
  8
0
100
AcDbLine
 10
-32.68379554605168
 20
74.89337166662945
 30
0.0
 11
-30.75073222055213
 21
76.27606878322072
 31
0.0
  0
LINE
  5
28D
330
1F
100
AcDbEntity
  8
0
100
AcDbLine
 10
-19.80887255833024
 20
53.17968610555727
 30
0.0
 11
-34.58877205586005
 21
73.47332051533812
 31
0.0
  0
LINE
  5
28E
330
1F
100
AcDbEntity
  8
0
100
AcDbLine
 10
-34.58877205586005
 20
73.47332051533812
 30
0.0
 11
-34.61627910841584
 21
73.51108924768646
 31
0.0
  0
LINE
  5
28F
330
1F
100
AcDbEntity
  8
0
100
AcDbLine
 10
-19.21843511939628
 20
53.01059593347723
 30
0.0
 11
-19.2659254878656
 21
53.02419628136695
 31
0.0
  0
LINE
  5
290
330
1F
100
AcDbEntity
  8
0
100
AcDbLine
 10
-19.2659254878656
 20
53.02419628136695
 30
0.0
 11
-19.80887255833024
 21
53.17968610555727
 31
0.0
  0
LINE
  5
291
330
1F
100
AcDbEntity
  8
0
100
AcDbLine
 10
-39.99973010886906
 20
80.41847312463736
 30
0.0
 11
-44.59519908723293
 21
86.72797994208554
 31
0.0
  0
LINE
  5
292
330
1F
100
AcDbEntity
  8
0
100
AcDbLine
 10
-44.59519908723293
 20
86.72797994208554
 30
0.0
 11
-44.61106282651298
 21
86.74976060726007
 31
0.0
  0
LINE
  5
293
330
1F
100
AcDbEntity
  8
0
100
AcDbLine
 10
15.49568848304154
 20
104.6205107300855
 30
0.0
 11
21.59537446476365
 21
103.9218868593841
 31
0.0
  0
LINE
  5
294
330
1F
100
AcDbEntity
  8
0
100
AcDbLine
 10
16.82429589509897
 20
87.70796580941091
 30
0.0
 11
19.1824177985898
 21
87.43683885818814
 31
0.0
  0
LINE
  5
295
330
1F
100
AcDbEntity
  8
0
100
AcDbLine
 10
-137.5346896087815
 20
-38.65681109871898
 30
0.0
 11
-137.2917701880996
 21
-38.61424188003609
 31
0.0
  0
LINE
  5
296
330
1F
100
AcDbEntity
  8
0
100
AcDbLine
 10
69.53559054088005
 20
25.75316195267069
 30
0.0
 11
70.10504227123673
 21
26.76565589684061
 31
0.0
  0
LINE
  5
297
330
1F
100
AcDbEntity
  8
0
100
AcDbLine
 10
70.10504227123673
 20
26.76565589684061
 30
0.0
 11
81.834159141526
 21
47.62020628022259
 31
0.0
  0
LINE
  5
298
330
1F
100
AcDbEntity
  8
0
100
AcDbLine
 10
73.67856243058185
 20
23.51158961759004
 30
0.0
 11
71.60732974014958
 21
24.63223876076387
 31
0.0
  0
LINE
  5
299
330
1F
100
AcDbEntity
  8
0
100
AcDbLine
 10
77.9614579555101
 20
21.55207167914236
 30
0.0
 11
75.82023911030257
 21
22.53172591373774
 31
0.0
  0
LINE
  5
29A
330
1F
100
AcDbEntity
  8
0
100
AcDbLine
 10
75.82023911030257
 20
22.53172591373774
 30
0.0
 11
73.67856243058185
 21
23.51158961759004
 31
0.0
  0
LINE
  5
29B
330
1F
100
AcDbEntity
  8
0
100
AcDbLine
 10
91.46153081819402
 20
17.44242741492657
 30
0.0
 11
89.16700748902639
 21
17.97672134896543
 31
0.0
  0
LINE
  5
29C
330
1F
100
AcDbEntity
  8
0
100
AcDbLine
 10
89.16700748902639
 20
17.97672134896543
 30
0.0
 11
86.87221647668376
 21
18.5110776146856
 31
0.0
  0
LINE
  5
29D
330
1F
100
AcDbEntity
  8
0
100
AcDbLine
 10
105.5269335780221
 20
16.09393919117889
 30
0.0
 11
103.1680056242738
 21
16.16262388479835
 31
0.0
  0
LINE
  5
29E
330
1F
100
AcDbEntity
  8
0
100
AcDbLine
 10
103.1680056242738
 20
16.16262388479835
 30
0.0
 11
100.8090422899527
 21
16.23130960859094
 31
0.0
  0
LINE
  5
29F
330
1F
100
AcDbEntity
  8
0
100
AcDbLine
 10
119.6133951327686
 20
17.5575606083813
 30
0.0
 11
117.2813034395707
 21
17.15799421861885
 31
0.0
  0
LINE
  5
2A0
330
1F
100
AcDbEntity
  8
0
100
AcDbLine
 10
117.2813034395707
 20
17.15799421861885
 30
0.0
 11
114.9494151848941
 21
16.75846268477431
 31
0.0
  0
LINE
  5
2A1
330
1F
100
AcDbEntity
  8
0
100
AcDbLine
 10
121.916055642964
 20
18.11066367836791
 30
0.0
 11
119.6133951327686
 21
17.5575606083813
 31
0.0
  0
LINE
  5
2A2
330
1F
100
AcDbEntity
  8
0
100
AcDbLine
 10
102.7281325050093
 20
41.21383104478281
 30
0.0
 11
101.2472895260567
 21
41.35581087762205
 31
0.0
  0
LINE
  5
2A3
330
1F
100
AcDbEntity
  8
0
100
AcDbLine
 10
101.2472895260567
 20
41.35581087762205
 30
0.0
 11
99.59244140965828
 21
41.51447392446768
 31
0.0
  0
LINE
  5
2A4
330
1F
100
AcDbEntity
  8
0
100
AcDbLine
 10
-118.9549333067802
 20
-14.60517056071892
 30
0.0
 11
-118.9401713627837
 21
-14.67902025929726
 31
0.0
  0
LINE
  5
2A5
330
1F
100
AcDbEntity
  8
0
100
AcDbLine
 10
-96.2560546939988
 20
5.58258172025966
 30
0.0
 11
-97.84604316010727
 21
4.706716238948868
 31
0.0
  0
LINE
  5
2A6
330
1F
100
AcDbEntity
  8
0
100
AcDbLine
 10
-97.84604316010727
 20
4.706716238948868
 30
0.0
 11
-98.19857553622238
 21
4.512519270942288
 31
0.0
  0
LINE
  5
2A7
330
1F
100
AcDbEntity
  8
0
100
AcDbLine
 10
-190.6920902522702
 20
-35.853733659311
 30
0.0
 11
-192.7845552039931
 21
-34.75243643224687
 31
0.0
  0
LINE
  5
2A8
330
1F
100
AcDbEntity
  8
0
100
AcDbLine
 10
-186.376370066095
 20
-37.77787030495077
 30
0.0
 11
-188.5340021762694
 21
-36.81590362687607
 31
0.0
  0
LINE
  5
2A9
330
1F
100
AcDbEntity
  8
0
100
AcDbLine
 10
-188.5340021762694
 20
-36.81590362687607
 30
0.0
 11
-190.6920902522702
 21
-35.853733659311
 31
0.0
  0
LINE
  5
2AA
330
1F
100
AcDbEntity
  8
0
100
AcDbLine
 10
-172.8368227160604
 20
-41.80275334921662
 30
0.0
 11
-175.132973086539
 21
-41.28074052385455
 31
0.0
  0
LINE
  5
2AB
330
1F
100
AcDbEntity
  8
0
100
AcDbLine
 10
-175.132973086539
 20
-41.28074052385455
 30
0.0
 11
-177.4293868762107
 21
-40.75866781208475
 31
0.0
  0
LINE
  5
2AC
330
1F
100
AcDbEntity
  8
0
100
AcDbLine
 10
-158.8211506030836
 20
-43.10086019262265
 30
0.0
 11
-161.1668597770064
 21
-43.03859044643983
 31
0.0
  0
LINE
  5
2AD
330
1F
100
AcDbEntity
  8
0
100
AcDbLine
 10
-161.1668597770064
 20
-43.03859044643983
 30
0.0
 11
-163.5126010547843
 21
-42.97631984802118
 31
0.0
  0
LINE
  5
2AE
330
1F
100
AcDbEntity
  8
0
100
AcDbLine
 10
-144.8717384654728
 20
-41.6231263193799
 30
0.0
 11
-147.1762636592065
 21
-42.02299901541587
 31
0.0
  0
LINE
  5
2AF
330
1F
100
AcDbEntity
  8
0
100
AcDbLine
 10
-147.1762636592065
 20
-42.02299901541587
 30
0.0
 11
-149.480586356886
 21
-42.42283657508482
 31
0.0
  0
LINE
  5
2B0
330
1F
100
AcDbEntity
  8
0
100
AcDbLine
 10
-142.6012189362997
 20
-41.07176825807173
 30
0.0
 11
-144.8717384654728
 21
-41.6231263193799
 31
0.0
  0
LINE
  5
2B1
330
1F
100
AcDbEntity
  8
0
100
AcDbLine
 10
-140.6331989083876
 20
-39.41593184064265
 30
0.0
 11
-140.3304242899438
 21
-40.52034338911263
 31
0.0
  0
LINE
  5
2B2
330
1F
100
AcDbEntity
  8
0
100
AcDbLine
 10
66.85964501906163
 20
59.82496696901542
 30
0.0
 11
73.68894510438172
 21
52.99189661382384
 31
0.0
  0
LINE
  5
2B3
330
1F
100
AcDbEntity
  8
0
100
AcDbLine
 10
68.97641161986668
 20
57.40057618097472
 30
0.0
 11
66.85964501906163
 21
59.82496696901542
 31
0.0
  0
LINE
  5
2B4
330
1F
100
AcDbEntity
  8
0
100
AcDbLine
 10
81.74858665871966
 20
47.66900846150761
 30
0.0
 11
81.72131585595406
 21
47.62004989820761
 31
0.0
  0
LINE
  5
2B5
330
1F
100
AcDbEntity
  8
0
100
AcDbLine
 10
81.72131585595406
 20
47.62004989820761
 30
0.0
 11
70.10504227123673
 21
26.76565589684061
 31
0.0
  0
LINE
  5
2B6
330
1F
100
AcDbEntity
  8
0
100
AcDbLine
 10
-62.84750727211195
 20
26.35152236604868
 30
0.0
 11
-63.44790781692635
 21
23.22161132782487
 31
0.0
  0
LINE
  5
2B7
330
1F
100
AcDbEntity
  8
0
100
AcDbLine
 10
-39.45059229835147
 20
21.95195286446043
 30
0.0
 11
-40.35214501155125
 21
17.36532969518248
 31
0.0
  0
LINE
  5
2B8
330
1F
100
AcDbEntity
  8
0
100
AcDbLine
 10
-80.55127178193858
 20
28.94269114721583
 30
0.0
 11
-81.09402585313899
 21
26.80929303250356
 31
0.0
  0
LINE
  5
2B9
330
1F
100
AcDbEntity
  8
0
100
AcDbLine
 10
-73.56606000958493
 20
27.62929326876795
 30
0.0
 11
-74.22018146077653
 21
25.0694813595236
 31
0.0
  0
LINE
  5
2BA
330
1F
100
AcDbEntity
  8
0
100
AcDbLine
 10
-73.56606000958493
 20
27.62929326876795
 30
0.0
 11
-75.0249146970156
 21
22.52230849734999
 31
0.0
  0
LINE
  5
2BB
330
1F
100
AcDbEntity
  8
0
100
AcDbLine
 10
-38.42846919079572
 20
70.64965629135797
 30
0.0
 11
-36.53146575754884
 21
72.07819635682331
 31
0.0
  0
LINE
  5
2BC
330
1F
100
AcDbEntity
  8
0
100
AcDbLine
 10
-42.02258484608883
 20
67.54646386036076
 30
0.0
 11
-40.22582970395419
 21
69.0977987344116
 31
0.0
  0
LINE
  5
2BD
330
1F
100
AcDbEntity
  8
0
100
AcDbLine
 10
-40.22582970395419
 20
69.0977987344116
 30
0.0
 11
-38.42846919079572
 21
70.64965629135797
 31
0.0
  0
LINE
  5
2BE
330
1F
100
AcDbEntity
  8
0
100
AcDbLine
 10
-51.4479539349383
 20
56.9096600212331
 30
0.0
 11
-49.99761823398205
 21
58.7848432861125
 31
0.0
  0
LINE
  5
2BF
330
1F
100
AcDbEntity
  8
0
100
AcDbLine
 10
-49.99761823398205
 20
58.7848432861125
 30
0.0
 11
-48.54669116661295
 21
60.66079114666442
 31
0.0
  0
LINE
  5
2C0
330
1F
100
AcDbEntity
  8
0
100
AcDbLine
 10
-58.56022191543297
 20
44.6294350908014
 30
0.0
 11
-57.51313950088382
 21
46.75213945128224
 31
0.0
  0
LINE
  5
2C1
330
1F
100
AcDbEntity
  8
0
100
AcDbLine
 10
-57.51313950088382
 20
46.75213945128224
 30
0.0
 11
-56.46557312941623
 21
48.8758249164467
 31
0.0
  0
LINE
  5
2C2
330
1F
100
AcDbEntity
  8
0
100
AcDbLine
 10
-63.08425625727965
 20
31.20308429052876
 30
0.0
 11
-62.48053468091616
 21
33.48757928934153
 31
0.0
  0
LINE
  5
2C3
330
1F
100
AcDbEntity
  8
0
100
AcDbLine
 10
-62.48053468091616
 20
33.48757928934153
 30
0.0
 11
-61.87651235417841
 21
35.7732123338243
 31
0.0
  0
LINE
  5
2C4
330
1F
100
AcDbEntity
  8
0
100
AcDbLine
 10
-63.53460962159583
 20
28.88363956777363
 30
0.0
 11
-63.08425625727965
 21
31.20308429052876
 31
0.0
  0
LINE
  5
2C5
330
1F
100
AcDbEntity
  8
0
100
AcDbLine
 10
-39.44949313778223
 20
21.95174617766762
 30
0.0
 11
-39.45059229835147
 21
21.95195286446043
 31
0.0
  0
LINE
  5
2C6
330
1F
100
AcDbEntity
  8
0
100
AcDbLine
 10
-39.45059229835147
 20
21.95195286446043
 30
0.0
 11
-62.84750727211195
 21
26.35152236604868
 31
0.0
  0
LINE
  5
2C7
330
1F
100
AcDbEntity
  8
0
100
AcDbLine
 10
-39.44949313778223
 20
21.95174617766762
 30
0.0
 11
-39.44231166242355
 21
21.99408035855731
 31
0.0
  0
LINE
  5
2C8
330
1F
100
AcDbEntity
  8
0
100
AcDbLine
 10
-39.44231166242355
 20
21.99408035855731
 30
0.0
 11
-38.84869767184158
 21
25.04313894760385
 31
0.0
  0
LINE
  5
2C9
330
1F
100
AcDbEntity
  8
0
100
AcDbLine
 10
-38.27750768683426
 20
22.71094854666093
 30
0.0
 11
-38.27877508279214
 21
22.71012753816386
 31
0.0
  0
LINE
  5
2CA
330
1F
100
AcDbEntity
  8
0
100
AcDbLine
 10
-38.27877508279214
 20
22.71012753816386
 30
0.0
 11
-39.44949313778223
 21
21.95174617766762
 31
0.0
  0
LINE
  5
2CB
330
1F
100
AcDbEntity
  8
0
100
AcDbLine
 10
-80.55127178193858
 20
28.94269114721583
 30
0.0
 11
-80.6419720141385
 21
28.95974510297671
 31
0.0
  0
LINE
  5
2CC
330
1F
100
AcDbEntity
  8
0
100
AcDbLine
 10
67.70335746509829
 20
60.51966047871995
 30
0.0
 11
66.85964501906163
 21
59.82496696901542
 31
0.0
  0
LINE
  5
2CD
330
1F
100
AcDbEntity
  8
0
100
AcDbLine
 10
66.85964501906163
 20
59.82496696901542
 30
0.0
 11
48.30631290809585
 21
44.54857812181283
 31
0.0
  0
LINE
  5
2CE
330
1F
100
AcDbEntity
  8
0
100
AcDbLine
 10
64.6640169755231
 20
64.15708663175562
 30
0.0
 11
66.18398747045251
 21
62.33801422145429
 31
0.0
  0
LINE
  5
2CF
330
1F
100
AcDbEntity
  8
0
100
AcDbLine
 10
61.38702955806651
 20
67.58476552222906
 30
0.0
 11
63.0258282092916
 21
65.87060711178897
 31
0.0
  0
LINE
  5
2D0
330
1F
100
AcDbEntity
  8
0
100
AcDbLine
 10
63.0258282092916
 20
65.87060711178897
 30
0.0
 11
64.6640169755231
 21
64.15708663175562
 31
0.0
  0
LINE
  5
2D1
330
1F
100
AcDbEntity
  8
0
100
AcDbLine
 10
50.27970926654532
 20
76.45827496906949
 30
0.0
 11
52.22959156730528
 21
75.10365822521942
 31
0.0
  0
LINE
  5
2D2
330
1F
100
AcDbEntity
  8
0
100
AcDbLine
 10
52.22959156730528
 20
75.10365822521942
 30
0.0
 11
54.17890094667661
 21
73.74943949970384
 31
0.0
  0
LINE
  5
2D3
330
1F
100
AcDbEntity
  8
0
100
AcDbLine
 10
37.61232409877295
 20
82.94565231814165
 30
0.0
 11
39.79530967979925
 21
82.00621145582977
 31
0.0
  0
LINE
  5
2D4
330
1F
100
AcDbEntity
  8
0
100
AcDbLine
 10
39.79530967979925
 20
82.00621145582977
 30
0.0
 11
41.97785072721366
 21
81.06696189713608
 31
0.0
  0
LINE
  5
2D5
330
1F
100
AcDbEntity
  8
0
100
AcDbLine
 10
23.89390408339853
 20
86.77956898400214
 30
0.0
 11
26.22205494155923
 21
86.29403493051171
 31
0.0
  0
LINE
  5
2D6
330
1F
100
AcDbEntity
  8
0
100
AcDbLine
 10
26.22205494155923
 20
86.29403493051171
 30
0.0
 11
28.54996086179326
 21
85.80855195863577
 31
0.0
  0
LINE
  5
2D7
330
1F
100
AcDbEntity
  8
0
100
AcDbLine
 10
16.00330365047115
 20
62.41705231357578
 30
0.0
 11
18.50654246127184
 21
82.11766632062121
 31
0.0
  0
LINE
  5
2D8
330
1F
100
AcDbEntity
  8
0
100
AcDbLine
 10
18.50654246127184
 20
82.11766632062121
 30
0.0
 11
19.1824177985898
 21
87.43683885818814
 31
0.0
  0
LINE
  5
2D9
330
1F
100
AcDbEntity
  8
0
100
AcDbLine
 10
20.6087978241058
 20
96.12270023395226
 30
0.0
 11
20.61698776016153
 21
96.12234733035693
 31
0.0
  0
LINE
  5
2DA
330
1F
100
AcDbEntity
  8
0
100
AcDbLine
 10
27.69444393674229
 20
103.065605300473
 30
0.0
 11
21.61562102313868
 21
103.9195679319799
 31
0.0
  0
LINE
  5
2DB
330
1F
100
AcDbEntity
  8
0
100
AcDbLine
 10
19.18754029812616
 20
87.43624989470811
 30
0.0
 11
21.53826678672566
 21
87.10836476006989
 31
0.0
  0
LINE
  5
2DC
330
1F
100
AcDbEntity
  8
0
100
AcDbLine
 10
21.53826678672566
 20
87.10836476006989
 30
0.0
 11
21.54337787131287
 21
87.10747613989682
 31
0.0
  0
LINE
  5
2DD
330
1F
100
AcDbEntity
  8
0
100
AcDbLine
 10
21.54337787131287
 20
87.10747613989682
 30
0.0
 11
26.22205494155923
 21
86.29403493051171
 31
0.0
  0
LINE
  5
2DE
330
1F
100
AcDbEntity
  8
0
100
AcDbLine
 10
20.61676709482029
 20
96.12099884786063
 30
0.0
 11
20.6087978241058
 21
96.12270023395226
 31
0.0
  0
LINE
  5
2DF
330
1F
100
AcDbEntity
  8
0
100
AcDbLine
 10
-137.2917701880996
 20
-38.61424188003609
 30
0.0
 11
-136.0588388528195
 21
-38.39818289436435
 31
0.0
  0
LINE
  5
2E0
330
1F
100
AcDbEntity
  8
0
100
AcDbLine
 10
-136.0588388528195
 20
-38.39818289436435
 30
0.0
 11
-134.388506442074
 21
-38.10547370929173
 31
0.0
  0
LINE
  5
2E1
330
1F
100
AcDbEntity
  8
0
100
AcDbLine
 10
-73.02785350596567
 20
27.52809672626396
 30
0.0
 11
-73.56606000958493
 21
27.62929326876795
 31
0.0
  0
LINE
  5
2E2
330
1F
100
AcDbEntity
  8
0
100
AcDbLine
 10
-73.56606000958493
 20
27.62929326876795
 30
0.0
 11
-80.55127178193858
 21
28.94269114721583
 31
0.0
  0
LINE
  5
2E3
330
1F
100
AcDbEntity
  8
0
100
AcDbLine
 10
21.54337787131287
 20
87.10747613989682
 30
0.0
 11
23.89390408339853
 21
86.77956898400214
 31
0.0
  0
LINE
  5
2E4
330
1F
100
AcDbEntity
  8
0
100
AcDbLine
 10
-90.15299307066267
 20
1.050218820998742
 30
0.0
 11
-82.68621647710178
 21
-5.372657408942787
 31
0.0
  0
LINE
  5
2E5
330
1F
100
AcDbEntity
  8
0
100
AcDbLine
 10
-90.83484648193706
 20
-10.40385036455439
 30
0.0
 11
-99.83358393734963
 21
-13.70546123962875
 31
0.0
  0
LINE
  5
2E6
330
1F
100
AcDbEntity
  8
0
100
AcDbLine
 10
-194.8775262978299
 20
-33.65087281462441
 30
0.0
 11
-202.7706573086807
 21
-42.1316195933111
 31
0.0
  0
LINE
  5
2E7
330
1F
100
AcDbEntity
  8
0
100
AcDbLine
 10
-65.2864625555769
 20
17.06159161041527
 30
0.0
 11
-69.53542027854887
 21
8.441060591511157
 31
0.0
  0
LINE
  5
2E8
330
1F
100
AcDbEntity
  8
0
100
AcDbLine
 10
-22.50625364427752
 20
81.00446470762991
 30
0.0
 11
-26.70803937029848
 21
78.77768543541407
 31
0.0
  0
LINE
  5
2E9
330
1F
100
AcDbEntity
  8
0
100
AcDbLine
 10
-31.50873606634043
 20
87.213538875794
 30
0.0
 11
-26.86339894298714
 21
90.05300914195585
 31
0.0
  0
LINE
  5
2EA
330
1F
100
AcDbEntity
  8
0
100
AcDbLine
 10
15.29067340240786
 20
97.25808429212987
 30
0.0
 11
20.60423371434942
 21
96.12367464091349
 31
0.0
  0
LINE
  5
2EB
330
1F
100
AcDbEntity
  8
0
100
AcDbLine
 10
-39.99973010886906
 20
80.41847312463736
 30
0.0
 11
-35.8978378690318
 21
83.99425647425848
 31
0.0
  0
LINE
  5
2EC
330
1F
100
AcDbEntity
  8
0
100
AcDbLine
 10
-34.61627910841584
 20
73.51108924768646
 30
0.0
 11
-39.99973010886906
 21
80.41847312463736
 31
0.0
  0
LINE
  5
2ED
330
1F
100
AcDbEntity
  8
0
100
AcDbLine
 10
-35.8978378690318
 20
83.99425647425848
 30
0.0
 11
-31.50873606634043
 21
87.213538875794
 31
0.0
  0
LINE
  5
2EE
330
1F
100
AcDbEntity
  8
0
100
AcDbLine
 10
-26.86339894298714
 20
90.05300914195585
 30
0.0
 11
-21.99472066340951
 21
92.49206660442844
 31
0.0
  0
LINE
  5
2EF
330
1F
100
AcDbEntity
  8
0
100
AcDbLine
 10
-21.99472066340951
 20
92.49206660442844
 30
0.0
 11
-16.93727470393589
 21
94.51298587302813
 31
0.0
  0
LINE
  5
2F0
330
1F
100
AcDbEntity
  8
0
100
AcDbLine
 10
15.29067340240786
 20
97.25808429212987
 30
0.0
 11
9.887063512680498
 21
97.94232593890287
 31
0.0
  0
LINE
  5
2F1
330
1F
100
AcDbEntity
  8
0
100
AcDbLine
 10
-16.93727470393589
 20
94.51298587302813
 30
0.0
 11
-11.72705815364694
 21
96.10105945244592
 31
0.0
  0
LINE
  5
2F2
330
1F
100
AcDbEntity
  8
0
100
AcDbLine
 10
-6.401223102139527
 20
97.24471667558254
 30
0.0
 11
-11.72705815364694
 21
96.10105945244592
 31
0.0
  0
LINE
  5
2F3
330
1F
100
AcDbEntity
  8
0
100
AcDbLine
 10
-6.401223102139527
 20
97.24471667558254
 30
0.0
 11
-0.9977974687540128
 21
97.93561765154573
 31
0.0
  0
LINE
  5
2F4
330
1F
100
AcDbEntity
  8
0
100
AcDbLine
 10
-0.9977974687540128
 20
97.93561765154573
 30
0.0
 11
4.444602223651155
 21
98.16872118916767
 31
0.0
  0
LINE
  5
2F5
330
1F
100
AcDbEntity
  8
0
100
AcDbLine
 10
4.444602223651155
 20
98.16872118916767
 30
0.0
 11
9.887063512680498
 21
97.94232593890287
 31
0.0
  0
LINE
  5
2F6
330
1F
100
AcDbEntity
  8
0
100
AcDbLine
 10
-133.0283614573926
 20
-14.23188441126044
 30
0.0
 11
-137.7001764374132
 21
-14.72821518765794
 31
0.0
  0
LINE
  5
2F7
330
1F
100
AcDbEntity
  8
0
100
AcDbLine
 10
-133.6251983989007
 20
-12.88648689416208
 30
0.0
 11
-129.0914292857882
 21
-12.40474769104254
 31
0.0
  0
LINE
  5
2F8
330
1F
100
AcDbEntity
  8
0
100
AcDbLine
 10
110.247171481304
 20
16.26990363340117
 30
0.0
 11
114.9494151848941
 21
16.75846268477431
 31
0.0
  0
LINE
  5
2F9
330
1F
100
AcDbEntity
  8
0
100
AcDbLine
 10
118.4228361162743
 20
7.466592076386974
 30
0.0
 11
113.090623751053
 21
6.58665276229658
 31
0.0
  0
LINE
  5
2FA
330
1F
100
AcDbEntity
  8
0
100
AcDbLine
 10
67.28889485952159
 20
18.50875662462142
 30
0.0
 11
71.7554406694383
 21
15.51083433034691
 31
0.0
  0
LINE
  5
2FB
330
1F
100
AcDbEntity
  8
0
100
AcDbLine
 10
69.53559054088005
 20
25.75316195267069
 30
0.0
 11
67.28889485952159
 21
18.50875662462142
 31
0.0
  0
LINE
  5
2FC
330
1F
100
AcDbEntity
  8
0
100
AcDbLine
 10
128.795167575936
 20
10.54144105608222
 30
0.0
 11
123.6696947255994
 21
8.78781259044171
 31
0.0
  0
LINE
  5
2FD
330
1F
100
AcDbEntity
  8
0
100
AcDbLine
 10
124.2189942395712
 20
18.66383354519594
 30
0.0
 11
128.795167575936
 21
10.54144105608222
 31
0.0
  0
LINE
  5
2FE
330
1F
100
AcDbEntity
  8
0
100
AcDbLine
 10
123.6696947255994
 20
8.78781259044171
 30
0.0
 11
118.4228361162743
 21
7.466592076386974
 31
0.0
  0
LINE
  5
2FF
330
1F
100
AcDbEntity
  8
0
100
AcDbLine
 10
113.090623751053
 20
6.58665276229658
 30
0.0
 11
107.709636344844
 21
6.15389992988519
 31
0.0
  0
LINE
  5
300
330
1F
100
AcDbEntity
  8
0
100
AcDbLine
 10
107.709636344844
 20
6.15389992988519
 30
0.0
 11
102.3167639864419
 21
6.171236513711603
 31
0.0
  0
LINE
  5
301
330
1F
100
AcDbEntity
  8
0
100
AcDbLine
 10
71.7554406694383
 20
15.51083433034691
 30
0.0
 11
76.4572658903677
 21
12.90004712243154
 31
0.0
  0
LINE
  5
302
330
1F
100
AcDbEntity
  8
0
100
AcDbLine
 10
102.3167639864419
 20
6.171236513711603
 30
0.0
 11
96.94897142965618
 21
6.638546234978756
 31
0.0
  0
LINE
  5
303
330
1F
100
AcDbEntity
  8
0
100
AcDbLine
 10
91.6430610907547
 20
7.552694276680617
 30
0.0
 11
96.94897142965618
 21
6.638546234978756
 31
0.0
  0
LINE
  5
304
330
1F
100
AcDbEntity
  8
0
100
AcDbLine
 10
91.6430610907547
 20
7.552694276680617
 30
0.0
 11
86.43543682572322
 21
8.907545499024314
 31
0.0
  0
LINE
  5
305
330
1F
100
AcDbEntity
  8
0
100
AcDbLine
 10
86.43543682572322
 20
8.907545499024314
 30
0.0
 11
81.36186956452389
 21
10.6940001658538
 31
0.0
  0
LINE
  5
306
330
1F
100
AcDbEntity
  8
0
100
AcDbLine
 10
81.36186956452389
 20
10.6940001658538
 30
0.0
 11
76.4572658903677
 21
12.90004712243154
 31
0.0
  0
LINE
  5
307
330
1F
100
AcDbEntity
  8
0
100
AcDbLine
 10
-80.52507527524217
 20
-31.75672881838508
 30
0.0
 11
-76.38599414625885
 21
-29.58397094455229
 31
0.0
  0
LINE
  5
308
330
1F
100
AcDbEntity
  8
0
100
AcDbLine
 10
-119.3959720928347
 20
-12.39878220028959
 30
0.0
 11
-118.9549333067802
 21
-14.60517056071892
 31
0.0
  0
LINE
  5
309
330
1F
100
AcDbEntity
  8
0
100
AcDbLine
 10
-120.5244705338086
 20
-6.753233773128107
 30
0.0
 11
-119.3959720928347
 21
-12.39878220028959
 31
0.0
  0
LINE
  5
30A
330
1F
100
AcDbEntity
  8
0
100
AcDbLine
 10
-154.1370828017132
 20
-42.91610661076579
 30
0.0
 11
-149.480586356886
 21
-42.42283657508482
 31
0.0
  0
LINE
  5
30B
330
1F
100
AcDbEntity
  8
0
100
AcDbLine
 10
-151.6274902919739
 20
-52.90827412916272
 30
0.0
 11
-156.8964146606766
 21
-53.78909036125435
 31
0.0
  0
LINE
  5
30C
330
1F
100
AcDbEntity
  8
0
100
AcDbLine
 10
-202.7706573086807
 20
-42.1316195933111
 30
0.0
 11
-198.239040017719
 21
-45.07946914571991
 31
0.0
  0
LINE
  5
30D
330
1F
100
AcDbEntity
  8
0
100
AcDbLine
 10
-141.4214439455055
 20
-49.84969132431578
 30
0.0
 11
-146.4573276898782
 21
-51.59219397348995
 31
0.0
  0
LINE
  5
30E
330
1F
100
AcDbEntity
  8
0
100
AcDbLine
 10
-140.3304242899438
 20
-40.52034338911263
 30
0.0
 11
-141.4214439455055
 21
-49.84969132431578
 31
0.0
  0
LINE
  5
30F
330
1F
100
AcDbEntity
  8
0
100
AcDbLine
 10
-146.4573276898782
 20
-51.59219397348995
 30
0.0
 11
-151.6274902919739
 21
-52.90827412916272
 31
0.0
  0
LINE
  5
310
330
1F
100
AcDbEntity
  8
0
100
AcDbLine
 10
-156.8964146606766
 20
-53.78909036125435
 30
0.0
 11
-162.2279465544561
 21
-54.2287297143329
 31
0.0
  0
LINE
  5
311
330
1F
100
AcDbEntity
  8
0
100
AcDbLine
 10
-162.2279465544561
 20
-54.2287297143329
 30
0.0
 11
-167.5855274551681
 21
-54.22424218230554
 31
0.0
  0
LINE
  5
312
330
1F
100
AcDbEntity
  8
0
100
AcDbLine
 10
-198.239040017719
 20
-45.07946914571991
 30
0.0
 11
-193.4859346759023
 21
-47.64476393702121
 31
0.0
  0
LINE
  5
313
330
1F
100
AcDbEntity
  8
0
100
AcDbLine
 10
-167.5855274551681
 20
-54.22424218230554
 30
0.0
 11
-172.9324293555095
 21
-53.77565787236901
 31
0.0
  0
LINE
  5
314
330
1F
100
AcDbEntity
  8
0
100
AcDbLine
 10
-178.2319903857989
 20
-52.88598682995702
 30
0.0
 11
-172.9324293555095
 21
-53.77565787236901
 31
0.0
  0
LINE
  5
315
330
1F
100
AcDbEntity
  8
0
100
AcDbLine
 10
-178.2319903857989
 20
-52.88598682995702
 30
0.0
 11
-183.4478502087937
 21
-51.56120152497085
 31
0.0
  0
LINE
  5
316
330
1F
100
AcDbEntity
  8
0
100
AcDbLine
 10
-183.4478502087937
 20
-51.56120152497085
 30
0.0
 11
-188.5441841070344
 21
-49.81020202814493
 31
0.0
  0
LINE
  5
317
330
1F
100
AcDbEntity
  8
0
100
AcDbLine
 10
-188.5441841070344
 20
-49.81020202814493
 30
0.0
 11
-193.4859346759023
 21
-47.64476393702121
 31
0.0
  0
LINE
  5
318
330
1F
100
AcDbEntity
  8
0
100
AcDbLine
 10
58.32146659483562
 20
34.55177207184034
 30
0.0
 11
62.07444249886011
 21
31.69424354289351
 31
0.0
  0
LINE
  5
319
330
1F
100
AcDbEntity
  8
0
100
AcDbLine
 10
60.22840154139824
 20
32.16449541372567
 30
0.0
 11
56.58651179559955
 21
34.93715991089775
 31
0.0
  0
LINE
  5
31A
330
1F
100
AcDbEntity
  8
0
100
AcDbLine
 10
-40.33282421766761
 20
13.84276366343497
 30
0.0
 11
-41.80163819758589
 21
9.51851356226179
 31
0.0
  0
LINE
  5
31B
330
1F
100
AcDbEntity
  8
0
100
AcDbLine
 10
-43.07962737537019
 20
8.357108933805092
 30
0.0
 11
-41.56650820075766
 21
12.81306191382022
 31
0.0
  0
LINE
  5
31C
330
1F
100
AcDbEntity
  8
0
100
AcDbLine
 10
-70.13407836084232
 20
27.25273886554682
 30
0.0
 11
-62.84104048198546
 21
26.3852339906859
 31
0.0
  0
LINE
  5
31D
330
1F
100
AcDbEntity
  8
0
100
AcDbLine
 10
-60.3664093302441
 20
40.25535134087449
 30
0.0
 11
-61.87651235417841
 21
35.7732123338243
 31
0.0
  0
LINE
  5
31E
330
1F
100
AcDbEntity
  8
0
100
AcDbLine
 10
-71.54590185330045
 20
38.23291102287864
 30
0.0
 11
-70.13714811928709
 21
43.45865580179927
 31
0.0
  0
LINE
  5
31F
330
1F
100
AcDbEntity
  8
0
100
AcDbLine
 10
-40.01400913953169
 20
80.4172014384982
 30
0.0
 11
-44.64517690807057
 21
77.57497039029379
 31
0.0
  0
LINE
  5
320
330
1F
100
AcDbEntity
  8
0
100
AcDbLine
 10
-34.63387397450762
 20
73.50717947960682
 30
0.0
 11
-40.01400913953169
 21
80.4172014384982
 31
0.0
  0
LINE
  5
321
330
1F
100
AcDbEntity
  8
0
100
AcDbLine
 10
-73.02785350596567
 20
27.52809672626396
 30
0.0
 11
-72.51147453423981
 21
32.9102081849774
 31
0.0
  0
LINE
  5
322
330
1F
100
AcDbEntity
  8
0
100
AcDbLine
 10
-73.02785350596567
 20
27.52809672626396
 30
0.0
 11
-70.12281855597249
 21
27.21882703491499
 31
0.0
  0
LINE
  5
323
330
1F
100
AcDbEntity
  8
0
100
AcDbLine
 10
-72.51147453423981
 20
32.9102081849774
 30
0.0
 11
-71.54590185330045
 21
38.23291102287864
 31
0.0
  0
LINE
  5
324
330
1F
100
AcDbEntity
  8
0
100
AcDbLine
 10
-70.13714811928709
 20
43.45865580179927
 30
0.0
 11
-68.29438560962338
 21
48.55045067485165
 31
0.0
  0
LINE
  5
325
330
1F
100
AcDbEntity
  8
0
100
AcDbLine
 10
-68.29438560962338
 20
48.55045067485165
 30
0.0
 11
-66.0299016057673
 21
53.47213138987825
 31
0.0
  0
LINE
  5
326
330
1F
100
AcDbEntity
  8
0
100
AcDbLine
 10
-44.64517690807057
 20
77.57497039029379
 30
0.0
 11
-49.01913437526878
 21
74.35420013463805
 31
0.0
  0
LINE
  5
327
330
1F
100
AcDbEntity
  8
0
100
AcDbLine
 10
-66.0299016057673
 20
53.47213138987825
 30
0.0
 11
-63.35902989432279
 21
58.18862865882957
 31
0.0
  0
LINE
  5
328
330
1F
100
AcDbEntity
  8
0
100
AcDbLine
 10
-60.30005835482998
 20
62.66623063785186
 30
0.0
 11
-63.35902989432279
 21
58.18862865882957
 31
0.0
  0
LINE
  5
329
330
1F
100
AcDbEntity
  8
0
100
AcDbLine
 10
-60.30005835482998
 20
62.66623063785186
 30
0.0
 11
-56.87411283960753
 21
66.87283821379252
 31
0.0
  0
LINE
  5
32A
330
1F
100
AcDbEntity
  8
0
100
AcDbLine
 10
-56.87411283960753
 20
66.87283821379252
 30
0.0
 11
-53.10501780050375
 21
70.7782107724409
 31
0.0
  0
LINE
  5
32B
330
1F
100
AcDbEntity
  8
0
100
AcDbLine
 10
-53.10501780050375
 20
70.7782107724409
 30
0.0
 11
-49.01913437526878
 21
74.35420013463805
 31
0.0
  0
LINE
  5
32C
330
1F
100
AcDbEntity
  8
0
100
AcDbLine
 10
33.12964181020986
 20
84.52861276842029
 30
0.0
 11
28.54996086179326
 21
85.80855195863577
 31
0.0
  0
LINE
  5
32D
330
1F
100
AcDbEntity
  8
0
100
AcDbLine
 10
31.44480672316492
 20
95.19645571159022
 30
0.0
 11
36.76606073884359
 21
94.05190589107747
 31
0.0
  0
LINE
  5
32E
330
1F
100
AcDbEntity
  8
0
100
AcDbLine
 10
75.25221493920344
 20
65.77512803554018
 30
0.0
 11
72.18934646378933
 21
70.25514859150327
 31
0.0
  0
LINE
  5
32F
330
1F
100
AcDbEntity
  8
0
100
AcDbLine
 10
67.70335746509829
 20
60.51966047871995
 30
0.0
 11
75.25221493920344
 21
65.77512803554018
 31
0.0
  0
LINE
  5
330
330
1F
100
AcDbEntity
  8
0
100
AcDbLine
 10
26.04463403126023
 20
95.88847054912281
 30
0.0
 11
20.61698776016153
 21
96.12234733035693
 31
0.0
  0
LINE
  5
331
330
1F
100
AcDbEntity
  8
0
100
AcDbLine
 10
26.04463403126023
 20
95.88847054912281
 30
0.0
 11
31.44480672316492
 21
95.19645571159022
 31
0.0
  0
LINE
  5
332
330
1F
100
AcDbEntity
  8
0
100
AcDbLine
 10
36.76606073884359
 20
94.05190589107747
 30
0.0
 11
41.97040163629829
 21
92.46316739506327
 31
0.0
  0
LINE
  5
333
330
1F
100
AcDbEntity
  8
0
100
AcDbLine
 10
41.97040163629829
 20
92.46316739506327
 30
0.0
 11
47.02072022320334
 21
90.44181559891517
 31
0.0
  0
LINE
  5
334
330
1F
100
AcDbEntity
  8
0
100
AcDbLine
 10
72.18934646378933
 20
70.25514859150327
 30
0.0
 11
68.75927963621457
 21
74.46313976005156
 31
0.0
  0
LINE
  5
335
330
1F
100
AcDbEntity
  8
0
100
AcDbLine
 10
47.02072022320334
 20
90.44181559891517
 30
0.0
 11
51.88107137692234
 21
88.00256096352695
 31
0.0
  0
LINE
  5
336
330
1F
100
AcDbEntity
  8
0
100
AcDbLine
 10
56.51694223383395
 20
85.16313008316345
 30
0.0
 11
51.88107137692234
 21
88.00256096352695
 31
0.0
  0
LINE
  5
337
330
1F
100
AcDbEntity
  8
0
100
AcDbLine
 10
56.51694223383395
 20
85.16313008316345
 30
0.0
 11
60.89550739810247
 21
81.94412306551337
 31
0.0
  0
LINE
  5
338
330
1F
100
AcDbEntity
  8
0
100
AcDbLine
 10
60.89550739810247
 20
81.94412306551337
 30
0.0
 11
64.98586899957276
 21
78.36884878479326
 31
0.0
  0
LINE
  5
339
330
1F
100
AcDbEntity
  8
0
100
AcDbLine
 10
64.98586899957276
 20
78.36884878479326
 30
0.0
 11
68.75927963621457
 21
74.46313976005156
 31
0.0
  0
LINE
  5
33A
330
1F
100
AcDbEntity
  8
0
100
AcDbLine
 10
20.60243621129999
 20
96.11262968003236
 30
0.0
 11
19.88477470877476
 21
91.72796627991454
 31
0.0
  0
LINE
  5
33B
330
1F
100
AcDbEntity
  8
0
100
AcDbLine
 10
20.61676709482029
 20
96.12099884786063
 30
0.0
 11
19.18754029812616
 21
87.43624989470811
 31
0.0
  0
LINE
  5
33C
330
1F
100
AcDbEntity
  8
0
100
AcDbLine
 10
4.695233995619137
 20
93.08242709940134
 30
0.0
 11
4.700369203779988
 21
93.0825341578167
 31
0.0
  0
LINE
  5
33D
330
1F
100
AcDbEntity
  8
0
100
AcDbLine
 10
-8.592145560419207
 20
59.10873300551066
 30
0.0
 11
-11.39292353589118
 21
57.85612611094594
 31
0.0
  0
LINE
  5
33E
330
1F
100
AcDbEntity
  8
0
100
AcDbLine
 10
0.2199620222493198
 20
61.70286212122188
 30
0.0
 11
-2.773259142275981
 21
61.03629098044562
 31
0.0
  0
LINE
  5
33F
330
1F
100
AcDbEntity
  8
0
100
AcDbLine
 10
-2.773259142275981
 20
61.03629098044562
 30
0.0
 11
-5.714824062943128
 21
60.17032593800168
 31
0.0
  0
LINE
  5
340
330
1F
100
AcDbEntity
  8
0
100
AcDbLine
 10
-5.714824062943129
 20
60.17032593800168
 30
0.0
 11
-8.592145560419207
 21
59.10873300551066
 31
0.0
  0
LINE
  5
341
330
1F
100
AcDbEntity
  8
0
100
AcDbLine
 10
9.380570510335128
 20
62.48161613838345
 30
0.0
 11
6.309926570842363
 21
62.42710100478399
 31
0.0
  0
LINE
  5
342
330
1F
100
AcDbEntity
  8
0
100
AcDbLine
 10
6.309926570842363
 20
62.42710100478399
 30
0.0
 11
3.252021238696015
 21
62.16713907182702
 31
0.0
  0
LINE
  5
343
330
1F
100
AcDbEntity
  8
0
100
AcDbLine
 10
3.252021238696015
 20
62.16713907182702
 30
0.0
 11
0.2199620222493195
 21
61.70286212122188
 31
0.0
  0
LINE
  5
344
330
1F
100
AcDbEntity
  8
0
100
AcDbLine
 10
-16.71740964441365
 20
54.80043129997374
 30
0.0
 11
-19.21843511939645
 21
53.01059593347719
 31
0.0
  0
LINE
  5
345
330
1F
100
AcDbEntity
  8
0
100
AcDbLine
 10
12.45078874924853
 20
62.33044710922326
 30
0.0
 11
9.380570510335128
 21
62.48161613838345
 31
0.0
  0
LINE
  5
346
330
1F
100
AcDbEntity
  8
0
100
AcDbLine
 10
-11.39292353589118
 20
57.85612611094594
 30
0.0
 11
-14.10519955112353
 21
56.41794533175568
 31
0.0
  0
LINE
  5
347
330
1F
100
AcDbEntity
  8
0
100
AcDbLine
 10
15.50741924505075
 20
61.97425209937875
 30
0.0
 11
12.45078874924853
 21
62.33044710922326
 31
0.0
  0
LINE
  5
348
330
1F
100
AcDbEntity
  8
0
100
AcDbLine
 10
-14.10519955112353
 20
56.41794533175568
 30
0.0
 11
-16.71740964441365
 21
54.80043129997374
 31
0.0
  0
LINE
  5
349
330
1F
100
AcDbEntity
  8
0
100
AcDbLine
 10
-105.0158095710514
 20
-14.25666804283309
 30
0.0
 11
-105.011013057496
 21
-14.25842017187964
 31
0.0
  0
LINE
  5
34A
330
1F
100
AcDbEntity
  8
0
100
AcDbLine
 10
-103.2683442352265
 20
-101.9747453078808
 30
0.0
 11
-103.263594427939
 21
-101.9764496996139
 31
0.0
  0
LINE
  5
34B
330
1F
100
AcDbEntity
  8
0
100
AcDbLine
 10
81.8739624166832
 20
15.33558138101163
 30
0.0
 11
81.86919465537986
 21
15.33737157865374
 31
0.0
  0
LINE
  5
34C
330
1F
100
AcDbEntity
  8
0
100
AcDbLine
 10
67.4689607259026
 20
26.39969003967886
 30
0.0
 11
68.02126483804375
 21
27.3821582473216
 31
0.0
  0
LINE
  5
34D
330
1F
100
AcDbEntity
  8
0
100
AcDbLine
 10
102.7279831867537
 20
41.31414851766052
 30
0.0
 11
105.788789722809
 21
41.43216602407503
 31
0.0
  0
LINE
  5
34E
330
1F
100
AcDbEntity
  8
0
100
AcDbLine
 10
101.240279879346
 20
41.35648294649256
 30
0.0
 11
102.7279831867537
 21
41.31414851766052
 31
0.0
  0
LINE
  5
34F
330
1F
100
AcDbEntity
  8
0
100
AcDbLine
 10
111.8680885015963
 20
42.28054340103893
 30
0.0
 11
114.8613202290466
 21
43.00743511353019
 31
0.0
  0
LINE
  5
350
330
1F
100
AcDbEntity
  8
0
100
AcDbLine
 10
105.788789722809
 20
41.43216602407503
 30
0.0
 11
108.839716361359
 21
41.75473713105702
 31
0.0
  0
LINE
  5
351
330
1F
100
AcDbEntity
  8
0
100
AcDbLine
 10
108.839716361359
 20
41.75473713105702
 30
0.0
 11
111.8680885015963
 21
42.28054340103893
 31
0.0
  0
LINE
  5
352
330
1F
100
AcDbEntity
  8
0
100
AcDbLine
 10
-185.2070757918348
 20
-44.55948573713113
 30
0.0
 11
-185.211824765206
 21
-44.55772031640801
 31
0.0
  0
LINE
  5
353
330
1F
100
AcDbEntity
  8
0
100
AcDbLine
 10
-154.5365676540573
 20
-16.44407317549527
 30
0.0
 11
-151.4987017254056
 21
-16.32034380328088
 31
0.0
  0
LINE
  5
354
330
1F
100
AcDbEntity
  8
0
100
AcDbLine
 10
-163.6198919074393
 20
-15.60258011926446
 30
0.0
 11
-160.6097775613279
 21
-16.08445630327977
 31
0.0
  0
LINE
  5
355
330
1F
100
AcDbEntity
  8
0
100
AcDbLine
 10
-160.6097775613279
 20
-16.08445630327977
 30
0.0
 11
-157.5778039324539
 21
-16.36533673124694
 31
0.0
  0
LINE
  5
356
330
1F
100
AcDbEntity
  8
0
100
AcDbLine
 10
-157.5778039324539
 20
-16.36533673124694
 30
0.0
 11
-154.5365676540573
 21
-16.44407317549527
 31
0.0
  0
LINE
  5
357
330
1F
100
AcDbEntity
  8
0
100
AcDbLine
 10
-172.3947031605824
 20
-12.97474512247207
 30
0.0
 11
-169.5246368592087
 21
-14.04453694272866
 31
0.0
  0
LINE
  5
358
330
1F
100
AcDbEntity
  8
0
100
AcDbLine
 10
-169.5246368592087
 20
-14.04453694272866
 30
0.0
 11
-166.5956365495146
 21
-14.92167857051857
 31
0.0
  0
LINE
  5
359
330
1F
100
AcDbEntity
  8
0
100
AcDbLine
 10
-166.5956365495146
 20
-14.92167857051857
 30
0.0
 11
-163.6198919074393
 21
-15.60258011926446
 31
0.0
  0
LINE
  5
35A
330
1F
100
AcDbEntity
  8
0
100
AcDbLine
 10
-145.483495062337
 20
-15.46833631695625
 30
0.0
 11
-142.5311529532685
 21
-14.74354194265977
 31
0.0
  0
LINE
  5
35B
330
1F
100
AcDbEntity
  8
0
100
AcDbLine
 10
-175.1938793109868
 20
-11.71668429938256
 30
0.0
 11
-172.3947031605824
 21
-12.97474512247207
 31
0.0
  0
LINE
  5
35C
330
1F
100
AcDbEntity
  8
0
100
AcDbLine
 10
-151.4987017254056
 20
-16.32034380328088
 30
0.0
 11
-148.4768255569403
 21
-15.99465436211925
 31
0.0
  0
LINE
  5
35D
330
1F
100
AcDbEntity
  8
0
100
AcDbLine
 10
-177.9104905454886
 20
-10.27551069013189
 30
0.0
 11
-175.1938793109868
 21
-11.71668429938256
 31
0.0
  0
LINE
  5
35E
330
1F
100
AcDbEntity
  8
0
100
AcDbLine
 10
-148.4768255569403
 20
-15.99465436211925
 30
0.0
 11
-145.483495062337
 21
-15.46833631695625
 31
0.0
  0
LINE
  5
35F
330
1F
100
AcDbEntity
  8
0
100
AcDbLine
 10
36.98461371334776
 20
54.2852008736194
 30
0.0
 11
36.9823512159133
 21
54.2897969741426
 31
0.0
  0
LINE
  5
360
330
1F
100
AcDbEntity
  8
0
100
AcDbLine
 10
98.48352951026659
 20
120.8162472788616
 30
0.0
 11
98.48127145812423
 21
120.8208991422312
 31
0.0
  0
LINE
  5
361
330
1F
100
AcDbEntity
  8
0
100
AcDbLine
 10
-53.20690880950285
 20
-10.05527789462425
 30
0.0
 11
-50.42565121874167
 21
-6.482325416118068
 31
0.0
  0
LINE
  5
362
330
1F
100
AcDbEntity
  8
0
100
AcDbLine
 10
-50.41778014258728
 20
-6.472213810077771
 30
0.0
 11
-47.8731921364107
 21
-2.70905425236334
 31
0.0
  0
LINE
  5
363
330
1F
100
AcDbEntity
  8
0
100
AcDbLine
 10
-45.58170657475763
 20
1.223384360791956
 30
0.0
 11
-43.55967037922485
 21
5.295862944919808
 31
0.0
  0
LINE
  5
364
330
1F
100
AcDbEntity
  8
0
100
AcDbLine
 10
-47.8731921364107
 20
-2.70905425236334
 30
0.0
 11
-45.58390539753249
 21
1.218955825496354
 31
0.0
  0
LINE
  5
365
330
1F
100
AcDbEntity
  8
0
100
AcDbLine
 10
-49.2119852089744
 20
67.45358927129789
 30
0.0
 11
-49.20834471932268
 21
67.45719611157939
 31
0.0
  0
LINE
  5
366
330
1F
100
AcDbEntity
  8
0
100
AcDbLine
 10
-19.26592548786552
 20
53.02419628136694
 30
0.0
 11
-19.24710048326486
 21
52.99831466749571
 31
0.0
  0
LINE
  5
367
330
1F
100
AcDbEntity
  8
0
100
AcDbLine
 10
-34.7553387259749
 20
34.39651695887905
 30
0.0
 11
-35.92629454133365
 21
31.5722545432053
 31
0.0
  0
LINE
  5
368
330
1F
100
AcDbEntity
  8
0
100
AcDbLine
 10
-30.14787366146321
 20
42.31222664685287
 30
0.0
 11
-31.86013092624678
 21
39.77802982949024
 31
0.0
  0
LINE
  5
369
330
1F
100
AcDbEntity
  8
0
100
AcDbLine
 10
-31.86013092624678
 20
39.77802982949024
 30
0.0
 11
-33.39808253040455
 21
37.13568344002579
 31
0.0
  0
LINE
  5
36A
330
1F
100
AcDbEntity
  8
0
100
AcDbLine
 10
-33.39808253040455
 20
37.13568344002579
 30
0.0
 11
-34.7553387259749
 21
34.39651695887905
 31
0.0
  0
LINE
  5
36B
330
1F
100
AcDbEntity
  8
0
100
AcDbLine
 10
-24.04038220120789
 20
49.15960011746189
 30
0.0
 11
-26.22977008395826
 21
47.01313024777969
 31
0.0
  0
LINE
  5
36C
330
1F
100
AcDbEntity
  8
0
100
AcDbLine
 10
-26.22977008395826
 20
47.01313024777969
 30
0.0
 11
-28.26846003878573
 21
44.72738990641071
 31
0.0
  0
LINE
  5
36D
330
1F
100
AcDbEntity
  8
0
100
AcDbLine
 10
-28.26846003878573
 20
44.72738990641071
 30
0.0
 11
-30.14787366146321
 21
42.31222664685287
 31
0.0
  0
LINE
  5
36E
330
1F
100
AcDbEntity
  8
0
100
AcDbLine
 10
-37.69093450391292
 20
25.71699732416385
 30
0.0
 11
-38.27750768683432
 21
22.71094854666076
 31
0.0
  0
LINE
  5
36F
330
1F
100
AcDbEntity
  8
0
100
AcDbLine
 10
-21.70953743551576
 20
51.15753874531475
 30
0.0
 11
-24.04038220120789
 21
49.15960011746189
 31
0.0
  0
LINE
  5
370
330
1F
100
AcDbEntity
  8
0
100
AcDbLine
 10
-35.92629454133365
 20
31.5722545432053
 30
0.0
 11
-36.90615131724746
 21
28.67496278672897
 31
0.0
  0
LINE
  5
371
330
1F
100
AcDbEntity
  8
0
100
AcDbLine
 10
-19.2471004832649
 20
52.99831466749567
 30
0.0
 11
-21.70953743551576
 21
51.15753874531475
 31
0.0
  0
LINE
  5
372
330
1F
100
AcDbEntity
  8
0
100
AcDbLine
 10
-36.90615131724746
 20
28.67496278672897
 30
0.0
 11
-37.69093450391292
 21
25.71699732416385
 31
0.0
  0
LINE
  5
373
330
1F
100
AcDbEntity
  8
0
100
AcDbLine
 10
61.39153809740604
 20
74.53759557346964
 30
0.0
 11
61.39531638813045
 21
74.53414306829298
 31
0.0
  0
LINE
  5
374
330
1F
100
AcDbEntity
  8
0
100
AcDbLine
 10
15.52583286645196
 20
61.97219348380337
 30
0.0
 11
15.52860484333932
 21
61.99401694039912
 31
0.0
  0
LINE
  5
375
330
1F
100
AcDbEntity
  8
0
100
AcDbLine
 10
27.43537589418274
 20
59.09899004582045
 30
0.0
 11
24.54179668547801
 21
60.11392411194281
 31
0.0
  0
LINE
  5
376
330
1F
100
AcDbEntity
  8
0
100
AcDbLine
 10
35.60808112760503
 20
54.92926529064487
 30
0.0
 11
32.98034911089581
 21
56.50102150230875
 31
0.0
  0
LINE
  5
377
330
1F
100
AcDbEntity
  8
0
100
AcDbLine
 10
32.98034911089581
 20
56.50102150230875
 30
0.0
 11
30.2522362449323
 21
57.89294317124883
 31
0.0
  0
LINE
  5
378
330
1F
100
AcDbEntity
  8
0
100
AcDbLine
 10
30.2522362449323
 20
57.89294317124883
 30
0.0
 11
27.43537589418274
 21
59.09899004582045
 31
0.0
  0
LINE
  5
379
330
1F
100
AcDbEntity
  8
0
100
AcDbLine
 10
42.77964485587885
 20
49.20680599628341
 30
0.0
 11
40.51814994836781
 21
51.2742479035752
 31
0.0
  0
LINE
  5
37A
330
1F
100
AcDbEntity
  8
0
100
AcDbLine
 10
40.51814994836781
 20
51.2742479035752
 30
0.0
 11
38.12424531921815
 21
53.18448869030215
 31
0.0
  0
LINE
  5
37B
330
1F
100
AcDbEntity
  8
0
100
AcDbLine
 10
38.12424531921815
 20
53.18448869030215
 30
0.0
 11
35.60808112760503
 21
54.92926529064487
 31
0.0
  0
LINE
  5
37C
330
1F
100
AcDbEntity
  8
0
100
AcDbLine
 10
18.57425183794177
 20
61.55365699504559
 30
0.0
 11
15.52583286645193
 21
61.97219348380314
 31
0.0
  0
LINE
  5
37D
330
1F
100
AcDbEntity
  8
0
100
AcDbLine
 10
44.89916507466579
 20
46.99109458824812
 30
0.0
 11
42.77964485587885
 21
49.20680599628341
 31
0.0
  0
LINE
  5
37E
330
1F
100
AcDbEntity
  8
0
100
AcDbLine
 10
24.54179668547801
 20
60.11392411194281
 30
0.0
 11
21.58386935560308
 21
60.93333424000981
 31
0.0
  0
LINE
  5
37F
330
1F
100
AcDbEntity
  8
0
100
AcDbLine
 10
46.86777152135758
 20
44.63667264022873
 30
0.0
 11
44.89916507466579
 21
46.99109458824812
 31
0.0
  0
LINE
  5
380
330
1F
100
AcDbEntity
  8
0
100
AcDbLine
 10
21.58386935560308
 20
60.93333424000981
 30
0.0
 11
18.57425183794177
 21
61.55365699504559
 31
0.0
  0
ENDSEC
  0
SECTION
  2
OBJECTS
  0
DICTIONARY
  5
C
330
0
100
AcDbDictionary
  3
ACAD_GROUP
350
D
  3
ACAD_LAYOUT
350
1A
  3
ACAD_MATERIAL
350
43
  3
ACAD_MLEADERSTYLE
350
5B
  3
ACAD_MLINESTYLE
350
17
  3
ACAD_PLOTSETTINGS
350
19
  3
ACAD_SCALELIST
350
47
  3
ACAD_VISUALSTYLE
350
2A
  3
ACDBHEADERROUNDTRIPXREC
350
381
  3
ACDBVARIABLEDICTIONARY
350
3A2
  3
DWGPROPS
350
3A9
  0
DICTIONARY
  5
3AA
330
8
100
AcDbDictionary
280
     1
  3
ACAD_XREC_ROUNDTRIP
360
3AB
  0
DICTIONARY
  5
D
102
{ACAD_REACTORS
330
C
102
}
330
C
100
AcDbDictionary
  0
DICTIONARY
  5
1A
102
{ACAD_REACTORS
330
C
102
}
330
C
100
AcDbDictionary
  0
DICTIONARY
  5
43
102
{ACAD_REACTORS
330
C
102
}
330
C
100
AcDbDictionary
  3
BYBLOCK
350
45
  3
BYLAYER
350
44
  3
GLOBAL
350
46
  0
DICTIONARY
  5
5B
102
{ACAD_REACTORS
330
C
102
}
330
C
100
AcDbDictionary
  3
STANDARD
350
5C
  0
DICTIONARY
  5
17
102
{ACAD_REACTORS
330
C
102
}
330
C
100
AcDbDictionary
  3
STANDARD
350
18
  0
DICTIONARY
  5
19
102
{ACAD_REACTORS
330
C
102
}
330
C
100
AcDbDictionary
  0
DICTIONARY
  5
47
102
{ACAD_REACTORS
330
C
102
}
330
C
100
AcDbDictionary
  3
A0
350
48
  3
A1
350
49
  3
A2
350
4A
  3
A3
350
4B
  3
A4
350
4C
  3
A5
350
4D
  3
A6
350
4E
  3
A7
350
4F
  3
A8
350
50
  3
A9
350
51
  3
B1
350
52
  3
B2
350
53
  3
B3
350
54
  3
B4
350
55
  3
B5
350
56
  3
B6
350
57
  3
B7
350
58
  0
DICTIONARY
  5
2A
102
{ACAD_REACTORS
330
C
102
}
330
C
100
AcDbDictionary
  3
2DWIREFRAME
350
2F
  3
BASIC
350
32
  3
BRIGHTEN
350
36
  3
COLORCHANGE
350
3A
  3
CONCEPTUAL
350
34
  3
DIM
350
35
  3
EDGECOLOROFF
350
3D
  3
FACEPATTERN
350
39
  3
FLAT
350
2B
  3
FLATWITHEDGES
350
2C
  3
GOURAUD
350
2D
  3
GOURAUDWITHEDGES
350
2E
  3
HIDDEN
350
31
  3
JITTEROFF
350
3B
  3
LINEPATTERN
350
38
  3
OVERHANGOFF
350
3C
  3
REALISTIC
350
33
  3
SHADED
350
42
  3
SHADED_WITH_EDGES
350
41
  3
SHADES_OF_GRAY
350
3E
  3
SKETCHY
350
3F
  3
THICKEN
350
37
  3
WIREFRAME
350
30
  3
X-RAY
350
40
  0
DICTIONARY
  5
381
102
{ACAD_REACTORS
330
C
102
}
330
C
100
AcDbDictionary
  3
CEPSNID
350
38B
  3
CEPSNTYPE
350
38A
  3
DIMSTYLEDATA
350
3A1
  3
FINGERPRINTGUID
350
38C
  3
HYPERLINKBASE
350
384
  3
INSUNITS
350
389
  3
LAYOUTDICT
350
386
  3
LWETCUNION
350
388
  3
PLOTSETDICT
350
387
  3
PSVPSCALE
350
38E
  3
PUCSBASE
350
391
  3
PUCSORGBACK
350
397
  3
PUCSORGBOTTOM
350
393
  3
PUCSORGFRONT
350
396
  3
PUCSORGLEFT
350
394
  3
PUCSORGRIGHT
350
395
  3
PUCSORGTOP
350
392
  3
PUCSORTHOREF
350
38F
  3
PUCSORTHOVIEW
350
390
  3
STYLESHEET
350
385
  3
TSTACKALIGN
350
382
  3
TSTACKSIZE
350
383
  3
UCSBASE
350
39A
  3
UCSORGBACK
350
3A0
  3
UCSORGBOTTOM
350
39C
  3
UCSORGFRONT
350
39F
  3
UCSORGLEFT
350
39D
  3
UCSORGRIGHT
350
39E
  3
UCSORGTOP
350
39B
  3
UCSORTHOREF
350
398
  3
UCSORTHOVIEW
350
399
  3
VERSIONGUID
350
38D
  0
DICTIONARY
  5
3A2
102
{ACAD_REACTORS
330
C
102
}
330
C
100
AcDbDictionary
  3
CANNOSCALE
350
3AC
  3
CMLEADERSTYLE
350
3A4
  3
CTABLESTYLE
350
3A3
  3
DIMASSOC
350
3A7
  3
HIDETEXT
350
3A8
  3
MSLTSCALE
350
3AD
  0
XRECORD
  5
3A9
102
{ACAD_REACTORS
330
C
102
}
330
C
100
AcDbXrecord
  1
DWGPROPS COOKIE
  2

  3

  4

  6

  7

  8
asimpson
  9

300
=
301
=
302
=
303
=
304
=
305
=
306
=
307
=
308
=
309
=
 40
0.0
 41
2460160.840239642
 42
2460160.840239954
  1

 90
        0
  0
XRECORD
  5
3AB
102
{ACAD_REACTORS
330
3AA
102
}
330
3AA
100
AcDbXrecord
102
VTR_0.000_0.000_1.000_1.000_VISUALSTYLE
340
2F
102
VTR_0.000_0.000_1.000_1.000_GRIDDISPLAY
 70
     3
102
VTR_0.000_0.000_1.000_1.000_GRIDMAJOR
 70
     5
102
VTR_0.000_0.000_1.000_1.000_DEFAULTLIGHTING
280
     1
102
VTR_0.000_0.000_1.000_1.000_DEFAULTLIGHTINGTYPE
 70
     1
102
VTR_0.000_0.000_1.000_1.000_BRIGHTNESS
141
0.0
102
VTR_0.000_0.000_1.000_1.000_CONTRAST
142
0.0
  0
MATERIAL
  5
45
102
{ACAD_REACTORS
330
43
102
}
102
{ACAD_XDICTIONARY
360
3B0
102
}
330
43
100
AcDbMaterial
  1
BYBLOCK
  0
MATERIAL
  5
44
102
{ACAD_REACTORS
330
43
102
}
102
{ACAD_XDICTIONARY
360
3AE
102
}
330
43
100
AcDbMaterial
  1
BYLAYER
  0
MATERIAL
  5
46
102
{ACAD_REACTORS
330
43
102
}
102
{ACAD_XDICTIONARY
360
3B2
102
}
330
43
100
AcDbMaterial
  1
GLOBAL
  0
ACAD_PROXY_OBJECT
  5
5C
102
{ACAD_REACTORS
330
5B
102
}
330
5B
100
AcDbProxyObject
 90
      499
 91
      505
 93
      610
310
40901902A4063FBFFFFFE056BD1B81E855B9FC0AD7A3703D0AD73F4214DD185B99185C9900AD7A3703D0AC73F90141901A02B5E8DC0F42B1CFC02B5E8DC0F42B1CFE5764000000000000300FC0
340
14
340
0
340
11
340
0
 94
        0
1001
ACAD_MLEADERVER
1070
     2
  0
MLINESTYLE
  5
18
102
{ACAD_REACTORS
330
17
102
}
330
17
100
AcDbMlineStyle
  2
Standard
 70
     0
  3

 62
   256
 51
90.0
 52
90.0
 71
     2
 49
0.5
 62
   256
  6
BYLAYER
 49
-0.5
 62
   256
  6
BYLAYER
  0
ACAD_PROXY_OBJECT
  5
48
102
{ACAD_REACTORS
330
47
102
}
330
47
100
AcDbProxyObject
 90
      499
 91
      503
 93
       41
310
903313A31580
  0
ACAD_PROXY_OBJECT
  5
49
102
{ACAD_REACTORS
330
47
102
}
330
47
100
AcDbProxyObject
 90
      499
 91
      503
 93
      257
310
90E312F31323822203D2031272D3022000000000000200FC000000000000284000
  0
ACAD_PROXY_OBJECT
  5
4A
102
{ACAD_REACTORS
330
47
102
}
330
47
100
AcDbProxyObject
 90
      499
 91
      503
 93
      249
310
90D312F363422203D2031272D3022000000000000240FC000000000000284000
  0
ACAD_PROXY_OBJECT
  5
4B
102
{ACAD_REACTORS
330
47
102
}
330
47
100
AcDbProxyObject
 90
      499
 91
      503
 93
      249
310
90D312F333222203D2031272D3022000000000000280FC000000000000284000
  0
ACAD_PROXY_OBJECT
  5
4C
102
{ACAD_REACTORS
330
47
102
}
330
47
100
AcDbProxyObject
 90
      499
 91
      503
 93
      249
310
90D312F313622203D2031272D30220000000000002C0FC000000000000284000
  0
ACAD_PROXY_OBJECT
  5
4D
102
{ACAD_REACTORS
330
47
102
}
330
47
100
AcDbProxyObject
 90
      499
 91
      503
 93
      249
310
90D332F333222203D2031272D30220000000000002E0FC000000000000284000
  0
ACAD_PROXY_OBJECT
  5
4E
102
{ACAD_REACTORS
330
47
102
}
330
47
100
AcDbProxyObject
 90
      499
 91
      503
 93
      241
310
90C312F3822203D2031272D3022000000000000300FC000000000000284000
  0
ACAD_PROXY_OBJECT
  5
4F
102
{ACAD_REACTORS
330
47
102
}
330
47
100
AcDbProxyObject
 90
      499
 91
      503
 93
      249
310
90D332F313622203D2031272D3022000000000000320FC000000000000284000
  0
ACAD_PROXY_OBJECT
  5
50
102
{ACAD_REACTORS
330
47
102
}
330
47
100
AcDbProxyObject
 90
      499
 91
      503
 93
      241
310
90C312F3422203D2031272D3022000000000000340FC000000000000284000
  0
ACAD_PROXY_OBJECT
  5
51
102
{ACAD_REACTORS
330
47
102
}
330
47
100
AcDbProxyObject
 90
      499
 91
      503
 93
      241
310
90C332F3822203D2031272D3022000000000000360FC000000000000284000
  0
ACAD_PROXY_OBJECT
  5
52
102
{ACAD_REACTORS
330
47
102
}
330
47
100
AcDbProxyObject
 90
      499
 91
      503
 93
      241
310
90C312F3222203D2031272D3022000000000000380FC000000000000284000
  0
ACAD_PROXY_OBJECT
  5
53
102
{ACAD_REACTORS
330
47
102
}
330
47
100
AcDbProxyObject
 90
      499
 91
      503
 93
      241
310
90C332F3422203D2031272D30220000000000003A0FC000000000000284000
  0
ACAD_PROXY_OBJECT
  5
54
102
{ACAD_REACTORS
330
47
102
}
330
47
100
AcDbProxyObject
 90
      499
 91
      503
 93
      161
310
90A3122203D2031272D30224000000000000284000
  0
ACAD_PROXY_OBJECT
  5
55
102
{ACAD_REACTORS
330
47
102
}
330
47
100
AcDbProxyObject
 90
      499
 91
      503
 93
      257
310
90E312D312F3222203D2031272D30220000000000003E0FC000000000000284000
  0
ACAD_PROXY_OBJECT
  5
56
102
{ACAD_REACTORS
330
47
102
}
330
47
100
AcDbProxyObject
 90
      499
 91
      503
 93
      225
310
90A3322203D2031272D302200000000000002100000000000000284000
  0
ACAD_PROXY_OBJECT
  5
57
102
{ACAD_REACTORS
330
47
102
}
330
47
100
AcDbProxyObject
 90
      499
 91
      503
 93
      225
310
90A3622203D2031272D302200000000000006100000000000000284000
  0
ACAD_PROXY_OBJECT
  5
58
102
{ACAD_REACTORS
330
47
102
}
330
47
100
AcDbProxyObject
 90
      499
 91
      503
 93
      249
310
90D31272D3022203D2031272D30220000000000000A100000000000000284000
  0
ACAD_PROXY_OBJECT
  5
2F
102
{ACAD_REACTORS
330
2A
102
}
330
2A
100
AcDbProxyObject
 90
      499
 91
      501
 93
      436
310
42CC9915DA5C99599C985B595049028333333333333E33F0000000000000F90107901411070040501600405405064090741402480A0340
1001
ACAD
1000
AcDbSavedByObjectVersion
1070
     0
  0
ACAD_PROXY_OBJECT
  5
32
102
{ACAD_REACTORS
330
2A
102
}
330
2A
100
AcDbProxyObject
 90
      499
 91
      501
 93
      388
310
4150985CDA58D07406404333333333333E33F0000000000000F90107A41107004050150841D405064090741402480A0350
1001
ACAD
1000
AcDbSavedByObjectVersion
1070
     0
  0
ACAD_PROXY_OBJECT
  5
36
102
{ACAD_REACTORS
330
2A
102
}
330
2A
100
AcDbProxyObject
 90
      499
 91
      501
 93
      428
310
42109C9A59DA1D195B90C409028333333333333E33F0000000000000F9010790141107004050150841D405064090741402480A029950
1001
ACAD
1000
AcDbSavedByObjectVersion
1070
     0
  0
ACAD_PROXY_OBJECT
  5
3A
102
{ACAD_REACTORS
330
2A
102
}
330
2A
100
AcDbProxyObject
 90
      499
 91
      501
 93
      452
310
42D0DBDB1BDC90DA185B99D95104090240C333333333333E33F0000000000000F90108901411070040501508421405064090741402480A0350
1001
ACAD
1000
AcDbSavedByObjectVersion
1070
     0
  0
ACAD_PROXY_OBJECT
  5
34
102
{ACAD_REACTORS
330
2A
102
}
330
2A
100
AcDbProxyObject
 90
      499
 91
      501
 93
      500
310
4290DBDB98D95C1D1D585B10940D028333333333333E33F0000000000000F90107902409070040501000000000018199010841D405064090740C02480A0340
1001
ACAD
1000
AcDbSavedByObjectVersion
1070
     0
  0
ACAD_PROXY_OBJECT
  5
35
102
{ACAD_REACTORS
330
2A
102
}
330
2A
100
AcDbProxyObject
 90
      499
 91
      501
 93
      412
310
40D11A5B50B409028333333333333E33F0000000000000F9010790141107004050150841D405064090741402480A02677FFFFFD0
1001
ACAD
1000
AcDbSavedByObjectVersion
1070
     0
  0
ACAD_PROXY_OBJECT
  5
3D
102
{ACAD_REACTORS
330
2A
102
}
330
2A
100
AcDbProxyObject
 90
      499
 91
      501
 93
      452
310
43115919D950DBDB1BDC93D999916409028333333333333E33F0000000000000F9010790141107004050150841D405064090741402480A0350
1001
ACAD
1000
AcDbSavedByObjectVersion
1070
     0
  0
ACAD_PROXY_OBJECT
  5
39
102
{ACAD_REACTORS
330
2A
102
}
330
2A
100
AcDbProxyObject
 90
      499
 91
      501
 93
      444
310
42D19858D95C185D1D195C9B90F409028333333333333E33F0000000000000F9010790141107004050150841D405064090741402480A0350
1001
ACAD
1000
AcDbSavedByObjectVersion
1070
     0
  0
ACAD_PROXY_OBJECT
  5
2B
102
{ACAD_REACTORS
330
2A
102
}
330
2A
100
AcDbProxyObject
 90
      499
 91
      501
 93
      380
310
41119B185D240901404333333333333E33F0000000000000F9010740A907004050150841D405064090741402480A1B50
1001
ACAD
1000
AcDbSavedByObjectVersion
1070
     0
  0
ACAD_PROXY_OBJECT
  5
2C
102
{ACAD_REACTORS
330
2A
102
}
330
2A
100
AcDbProxyObject
 90
      499
 91
      501
 93
      468
310
43519B185D15DA5D1A115919D95CD0140901404333333333333E33F0000000000000F90107409019070040501600405405064090741402480A1B50
1001
ACAD
1000
AcDbSavedByObjectVersion
1070
     0
  0
ACAD_PROXY_OBJECT
  5
2D
102
{ACAD_REACTORS
330
2A
102
}
330
2A
100
AcDbProxyObject
 90
      499
 91
      501
 93
      404
310
41D1DBDD5C985D5910240902404333333333333E33F0000000000000F9010740A9070040501641D405064090741402480A1B50
1001
ACAD
1000
AcDbSavedByObjectVersion
1070
     0
  0
ACAD_PROXY_OBJECT
  5
2E
102
{ACAD_REACTORS
330
2A
102
}
330
2A
100
AcDbProxyObject
 90
      499
 91
      501
 93
      492
310
4411DBDD5C985D5915DA5D1A115919D95CD0340902404333333333333E33F0000000000000F90107409019070040501600405405064090741402480A1B50
1001
ACAD
1000
AcDbSavedByObjectVersion
1070
     0
  0
ACAD_PROXY_OBJECT
  5
31
102
{ACAD_REACTORS
330
2A
102
}
330
2A
100
AcDbProxyObject
 90
      499
 91
      501
 93
      476
310
41921A5919195B90640502408333333333333E33F0000000000000F901079024090700405020000000000001110200405405064090740C02480A0340
1001
ACAD
1000
AcDbSavedByObjectVersion
1070
     0
  0
ACAD_PROXY_OBJECT
  5
3B
102
{ACAD_REACTORS
330
2A
102
}
330
2A
100
AcDbProxyObject
 90
      499
 91
      501
 93
      428
310
42529A5D1D195C93D999914409028333333333333E33F0000000000000F9010790141107004050150A41D405064090741402480A0350
1001
ACAD
1000
AcDbSavedByObjectVersion
1070
     0
  0
ACAD_PROXY_OBJECT
  5
38
102
{ACAD_REACTORS
330
2A
102
}
330
2A
100
AcDbProxyObject
 90
      499
 91
      501
 93
      444
310
42D31A5B995C185D1D195C9B90E409028333333333333E33F0000000000000F9010790141107004050750841D405064090741402483A0350
1001
ACAD
1000
AcDbSavedByObjectVersion
1070
     0
  0
ACAD_PROXY_OBJECT
  5
3C
102
{ACAD_REACTORS
330
2A
102
}
330
2A
100
AcDbProxyObject
 90
      499
 91
      501
 93
      444
310
42D3DD995C9A185B99D3D999915409028333333333333E33F0000000000000F9010790141107004050150941D405064090741402480A0350
1001
ACAD
1000
AcDbSavedByObjectVersion
1070
     0
  0
ACAD_PROXY_OBJECT
  5
33
102
{ACAD_REACTORS
330
2A
102
}
330
2A
100
AcDbProxyObject
 90
      499
 91
      501
 93
      428
310
425499585B1A5CDD1A58D08409038333333333333E33F0000000000000F9010740A907004050150800405405064090740C02480A1B40
1001
ACAD
1000
AcDbSavedByObjectVersion
1070
     0
  0
ACAD_PROXY_OBJECT
  5
42
102
{ACAD_REACTORS
330
2A
102
}
330
2A
100
AcDbProxyObject
 90
      499
 91
      501
 93
      420
310
4194DA1859195911B40902404333333333333E33F0000000000000F9010740A41107004050150800405405064090840C02480A0B40
1001
ACAD
1000
AcDbSavedByObjectVersion
1070
     0
  0
ACAD_PROXY_OBJECT
  5
41
102
{ACAD_REACTORS
330
2A
102
}
330
2A
100
AcDbProxyObject
 90
      499
 91
      501
 93
      516
310
4454DA18591959081DDA5D1A08195919D95CD1A40902404333333333333E33F0000000000000F901074090142907004050250800405405064090740C02480A0B40
1001
ACAD
1000
AcDbSavedByObjectVersion
1070
     0
  0
ACAD_PROXY_OBJECT
  5
3E
102
{ACAD_REACTORS
330
2A
102
}
330
2A
100
AcDbProxyObject
 90
      499
 91
      501
 93
      532
310
4394DA1859195CC81BD98811DC985E5174090240C333333333333E33F0000000000000F901079024090741D01000000000000111010841D405064090740C02480A0340
1001
ACAD
1000
AcDbSavedByObjectVersion
1070
     0
  0
ACAD_PROXY_OBJECT
  5
3F
102
{ACAD_REACTORS
330
2A
102
}
330
2A
100
AcDbProxyObject
 90
      499
 91
      501
 93
      476
310
41D4DAD95D18DA1E51840502408333333333333E33F0000000000000F901079024090741D01000000000000111010B41D405064090741802480A0340
1001
ACAD
1000
AcDbSavedByObjectVersion
1070
     0
  0
ACAD_PROXY_OBJECT
  5
37
102
{ACAD_REACTORS
330
2A
102
}
330
2A
100
AcDbProxyObject
 90
      499
 91
      501
 93
      412
310
41D51A1A58DAD95B90D409028333333333333E33F0000000000000F9010790141107004050150C41D405064090741402480A0350
1001
ACAD
1000
AcDbSavedByObjectVersion
1070
     0
  0
ACAD_PROXY_OBJECT
  5
30
102
{ACAD_REACTORS
330
2A
102
}
330
2A
100
AcDbProxyObject
 90
      499
 91
      501
 93
      420
310
4255DA5C99599C985B595059028333333333333E33F0000000000000F90107901411070040501600405405064090740C02480A0340
1001
ACAD
1000
AcDbSavedByObjectVersion
1070
     0
  0
ACAD_PROXY_OBJECT
  5
40
102
{ACAD_REACTORS
330
2A
102
}
330
2A
100
AcDbProxyObject
 90
      499
 91
      501
 93
      404
310
41560B54985E51940902404000000000000E03F0000000000000F9010740501907004050150841D405064090740C02480A1B40
1001
ACAD
1000
AcDbSavedByObjectVersion
1070
     0
  0
XRECORD
  5
38B
102
{ACAD_REACTORS
330
381
102
}
330
381
100
AcDbXrecord
340
0
  0
XRECORD
  5
38A
102
{ACAD_REACTORS
330
381
102
}
330
381
100
AcDbXrecord
 90
        0
  0
XRECORD
  5
3A1
102
{ACAD_REACTORS
330
381
102
}
330
381
100
AcDbXrecord
1000
DSTYLE
1002
{
1070
   340
340
11
1002
}
  0
XRECORD
  5
38C
102
{ACAD_REACTORS
330
381
102
}
330
381
100
AcDbXrecord
  1
{13bc8217-0ae7-44f7-afd5-eed606521635}
  0
XRECORD
  5
384
102
{ACAD_REACTORS
330
381
102
}
330
381
100
AcDbXrecord
  1

  0
XRECORD
  5
389
102
{ACAD_REACTORS
330
381
102
}
330
381
100
AcDbXrecord
 90
        1
  0
XRECORD
  5
386
102
{ACAD_REACTORS
330
381
102
}
330
381
100
AcDbXrecord
340
1A
  0
XRECORD
  5
388
102
{ACAD_REACTORS
330
381
102
}
330
381
100
AcDbXrecord
 90
    10781
  0
XRECORD
  5
387
102
{ACAD_REACTORS
330
381
102
}
330
381
100
AcDbXrecord
340
19
  0
XRECORD
  5
38E
102
{ACAD_REACTORS
330
381
102
}
330
381
100
AcDbXrecord
 40
0.0
  0
XRECORD
  5
391
102
{ACAD_REACTORS
330
381
102
}
330
381
100
AcDbXrecord
340
0
  0
XRECORD
  5
397
102
{ACAD_REACTORS
330
381
102
}
330
381
100
AcDbXrecord
 10
0.0
 20
0.0
 30
0.0
  0
XRECORD
  5
393
102
{ACAD_REACTORS
330
381
102
}
330
381
100
AcDbXrecord
 10
0.0
 20
0.0
 30
0.0
  0
XRECORD
  5
396
102
{ACAD_REACTORS
330
381
102
}
330
381
100
AcDbXrecord
 10
0.0
 20
0.0
 30
0.0
  0
XRECORD
  5
394
102
{ACAD_REACTORS
330
381
102
}
330
381
100
AcDbXrecord
 10
0.0
 20
0.0
 30
0.0
  0
XRECORD
  5
395
102
{ACAD_REACTORS
330
381
102
}
330
381
100
AcDbXrecord
 10
0.0
 20
0.0
 30
0.0
  0
XRECORD
  5
392
102
{ACAD_REACTORS
330
381
102
}
330
381
100
AcDbXrecord
 10
0.0
 20
0.0
 30
0.0
  0
XRECORD
  5
38F
102
{ACAD_REACTORS
330
381
102
}
330
381
100
AcDbXrecord
340
0
  0
XRECORD
  5
390
102
{ACAD_REACTORS
330
381
102
}
330
381
100
AcDbXrecord
 70
     0
  0
XRECORD
  5
385
102
{ACAD_REACTORS
330
381
102
}
330
381
100
AcDbXrecord
  1

  0
XRECORD
  5
382
102
{ACAD_REACTORS
330
381
102
}
330
381
100
AcDbXrecord
 90
        1
  0
XRECORD
  5
383
102
{ACAD_REACTORS
330
381
102
}
330
381
100
AcDbXrecord
 90
       70
  0
XRECORD
  5
39A
102
{ACAD_REACTORS
330
381
102
}
330
381
100
AcDbXrecord
340
0
  0
XRECORD
  5
3A0
102
{ACAD_REACTORS
330
381
102
}
330
381
100
AcDbXrecord
 10
0.0
 20
0.0
 30
0.0
  0
XRECORD
  5
39C
102
{ACAD_REACTORS
330
381
102
}
330
381
100
AcDbXrecord
 10
0.0
 20
0.0
 30
0.0
  0
XRECORD
  5
39F
102
{ACAD_REACTORS
330
381
102
}
330
381
100
AcDbXrecord
 10
0.0
 20
0.0
 30
0.0
  0
XRECORD
  5
39D
102
{ACAD_REACTORS
330
381
102
}
330
381
100
AcDbXrecord
 10
0.0
 20
0.0
 30
0.0
  0
XRECORD
  5
39E
102
{ACAD_REACTORS
330
381
102
}
330
381
100
AcDbXrecord
 10
0.0
 20
0.0
 30
0.0
  0
XRECORD
  5
39B
102
{ACAD_REACTORS
330
381
102
}
330
381
100
AcDbXrecord
 10
0.0
 20
0.0
 30
0.0
  0
XRECORD
  5
398
102
{ACAD_REACTORS
330
381
102
}
330
381
100
AcDbXrecord
340
0
  0
XRECORD
  5
399
102
{ACAD_REACTORS
330
381
102
}
330
381
100
AcDbXrecord
 70
     0
  0
XRECORD
  5
38D
102
{ACAD_REACTORS
330
381
102
}
330
381
100
AcDbXrecord
  1
{FAEB1C32-E019-11D5-929B-00C0DF256EC4}
  0
DICTIONARYVAR
  5
3AC
102
{ACAD_REACTORS
330
3A2
102
}
330
3A2
100
DictionaryVariables
280
     0
  1
1:1
  0
DICTIONARYVAR
  5
3A4
102
{ACAD_REACTORS
330
3A2
102
}
330
3A2
100
DictionaryVariables
280
     0
  1
Standard
  0
DICTIONARYVAR
  5
3A3
102
{ACAD_REACTORS
330
3A2
102
}
330
3A2
100
DictionaryVariables
280
     0
  1
Standard
  0
DICTIONARYVAR
  5
3A7
102
{ACAD_REACTORS
330
3A2
102
}
330
3A2
100
DictionaryVariables
280
     0
  1
2
  0
DICTIONARYVAR
  5
3A8
102
{ACAD_REACTORS
330
3A2
102
}
330
3A2
100
DictionaryVariables
280
     0
  1
1
  0
DICTIONARYVAR
  5
3AD
102
{ACAD_REACTORS
330
3A2
102
}
330
3A2
100
DictionaryVariables
280
     0
  1
1
  0
DICTIONARY
  5
3B0
330
45
100
AcDbDictionary
280
     1
  3
ACAD_XREC_ROUNDTRIP
360
3B1
  0
DICTIONARY
  5
3AE
330
44
100
AcDbDictionary
280
     1
  3
ACAD_XREC_ROUNDTRIP
360
3AF
  0
DICTIONARY
  5
3B2
330
46
100
AcDbDictionary
280
     1
  3
ACAD_XREC_ROUNDTRIP
360
3B3
  0
XRECORD
  5
3B1
102
{ACAD_REACTORS
330
3B0
102
}
330
3B0
100
AcDbXrecord
102
MATERIAL
148
0.0
149
0.0
149
0.0
 93
        0
 94
      127
282
     0
 72
     1
 77
     1
171
     1
175
     1
179
     1
273
     0
  0
XRECORD
  5
3AF
102
{ACAD_REACTORS
330
3AE
102
}
330
3AE
100
AcDbXrecord
102
MATERIAL
148
0.0
149
0.0
149
0.0
 93
        0
 94
      127
282
     0
 72
     1
 77
     1
171
     1
175
     1
179
     1
273
     0
  0
XRECORD
  5
3B3
102
{ACAD_REACTORS
330
3B2
102
}
330
3B2
100
AcDbXrecord
102
MATERIAL
148
0.0
149
0.0
149
0.0
 93
        0
 94
      127
282
     0
 72
     1
 77
     1
171
     1
175
     1
179
     1
273
     0
  0
ENDSEC
  0
EOF
